  0
SECTION
  2
HEADER
  9
$ACADVER
  1
AC1021
  9
$DWGCODEPAGE
  3
ANSI_1250
  9
$EXTMAX
 10
261.62
 20
198.12
 30
0.0
  9
$EXTMIN
 10
0.0
 20
0.0
 30
0.0
  9
$LIMMIN
 10
0.0
 20
0.0
  9
$LIMMAX
 10
261.62
 20
198.12
  9
$VIEWCTR
 10
130.81
 20
99.06
  9
$VIEWSIZE
 40
198.12
  9
$CLAYER
  8
0
  9
$LTSCALE
 40
14.3891
  9
$CELTYPE
  6
BYLAYER
  9
$DIMSCALE
 40
1.0
  9
$DIMASZ
 40
3.5
  9
$DIMEXO
 40
1.635125
  9
$DIMDLI
 40
9.94156
  9
$DIMEXE
 40
4.70916
  9
$DIMCEN
 40
2.35458
  9
$DIMLFAC
 40
1.0
  9
$DIMBLK
  1
_FILLED
  9
$DIMTXT
 40
3.5
  9
$DIMTOL
 70
1
  9
$DIMLIM
 70
0
  9
$DIMTFAC
 40
1.0
  9
$DIMTP
 40
0.01
  9
$DIMTM
 40
0.01
  9
$PDMODE
 70
3
  9
$PDSIZE
 40
8.0
  9
$HANDSEED
  5
714
  9
$TILEMODE
 70
1
  9
$MEASUREMENT
 70
1
  9
$INSUNITS
 70
4
  0
ENDSEC
  0
SECTION
  2
CLASSES
  0
CLASS
  1
ACDBDICTIONARYWDFLT
  2
AcDbDictionaryWithDefault
  3
AutoCAD 2000
 90
0
 91
1
280
0
281
0
  0
CLASS
  1
ACDBPLACEHOLDER
  2
AcDbPlaceHolder
  3
AutoCAD 2000
 90
0
 91
1
280
0
281
0
  0
CLASS
  1
LAYOUT
  2
AcDbLayout
  3
AutoCAD 2000
 90
0
 91
0
280
0
281
0
  0
ENDSEC
  0
SECTION
  2
TABLES
  0
TABLE
  2
VPORT
  5
8
100
AcDbSymbolTable
 70
2
  0
VPORT
  5
1F4
100
AcDbSymbolTableRecord
100
AcDbViewportTableRecord
  2
*ACTIVE
 70
0
 10
0.0
 20
0.0
 11
1.0
 21
1.0
 12
130.81
 22
99.06
 13
0.0
 23
0.0
 14
1.0
 24
1.0
 15
0.0
 25
0.0
 16
0.0
 26
0.0
 36
1.0
 17
0.0
 27
0.0
 37
0.0
 40
198.12
 41
1.3205128205
 42
50.0
 43
0.0
 44
0.0
 50
0.0
 51
0.0
 71
0
 72
100
 73
1
 74
1
 75
0
 76
0
 77
0
 78
0
  0
ENDTAB
  0
TABLE
  2
LTYPE
  5
5
100
AcDbSymbolTable
 70
6
  0
LTYPE
  5
14
100
AcDbSymbolTableRecord
100
AcDbLinetypeTableRecord
  2
BYBLOCK
 70
0
  3

 72
65
 73
0
 40
0.0
  0
LTYPE
  5
15
100
AcDbSymbolTableRecord
100
AcDbLinetypeTableRecord
  2
BYLAYER
 70
0
  3

 72
65
 73
0
 40
0.0
  0
LTYPE
  5
16
100
AcDbSymbolTableRecord
100
AcDbLinetypeTableRecord
  2
CONTINUOUS
 70
64
  3
Solid line
 72
65
 73
0
 40
0.0
  0
LTYPE
  5
1F5
100
AcDbSymbolTableRecord
100
AcDbLinetypeTableRecord
  2
CENTER
 70
64
  3
____ _ ____ _ ____ _ ____ _ ____ _ ____ _ ____
 72
65
 73
4
 40
0.6
 49
0.375
 74
0
 49
-0.075
 74
0
 49
0.075
 74
0
 49
-0.075
 74
0
  0
LTYPE
  5
1F6
100
AcDbSymbolTableRecord
100
AcDbLinetypeTableRecord
  2
HIDDEN
 70
64
  3
- - - - - - - - - - - - - - - - - - - -
 72
65
 73
2
 40
0.2
 49
0.1
 74
0
 49
-0.1
 74
0
  0
LTYPE
  5
1F7
100
AcDbSymbolTableRecord
100
AcDbLinetypeTableRecord
  2
PHANTOM
 70
64
  3
_____ _ _ _____ _ _ _____ _ _ _____
 72
65
 73
6
 40
0.8
 49
0.45
 74
0
 49
-0.05
 74
0
 49
0.1
 74
0
 49
-0.05
 74
0
 49
0.1
 74
0
 49
-0.05
 74
0
  0
LTYPE
  5
1F8
100
AcDbSymbolTableRecord
100
AcDbLinetypeTableRecord
  2
DOT
 70
64
  3
. . . . . . . . . . . . . . . . . . . .
 72
65
 73
2
 40
0.2
 49
0.1
 74
0
 49
-0.1
 74
0
  0
LTYPE
  5
1F9
100
AcDbSymbolTableRecord
100
AcDbLinetypeTableRecord
  2
DASHED
 70
64
  3
- - - - - - - - - - - - - - - - - - - -
 72
65
 73
2
 40
0.2
 49
0.1
 74
0
 49
-0.1
 74
0
  0
ENDTAB
  0
TABLE
  2
LAYER
  5
2
100
AcDbSymbolTable
 70
36
  0
LAYER
  5
10
100
AcDbSymbolTableRecord
100
AcDbLayerTableRecord
  2
0
 70
0
 62
7
  6
CONTINUOUS
370
-3
390
F
  0
LAYER
  5
1FA
100
AcDbSymbolTableRecord
100
AcDbLayerTableRecord
  2
DEFAULT_1
 70
0
 62
7
  6
CENTER
370
-3
390
F
  0
LAYER
  5
1FB
100
AcDbSymbolTableRecord
100
AcDbLayerTableRecord
  2
DEFAULT_2
 70
0
 62
8
  6
HIDDEN
370
-3
390
F
  0
LAYER
  5
1FC
100
AcDbSymbolTableRecord
100
AcDbLayerTableRecord
  2
DEFAULT_3
 70
0
 62
7
  6
PHANTOM
370
-3
390
F
  0
LAYER
  5
1FD
100
AcDbSymbolTableRecord
100
AcDbLayerTableRecord
  2
FORMAT
 70
0
 62
7
  6
CONTINUOUS
370
-3
390
F
  0
LAYER
  5
1FE
100
AcDbSymbolTableRecord
100
AcDbLayerTableRecord
  2
SLD-0
 70
0
 62
7
  6
CONTINUOUS
370
-3
390
F
  0
ENDTAB
  0
TABLE
  2
STYLE
  5
3
100
AcDbSymbolTable
 70
1
  0
STYLE
  5
11
100
AcDbSymbolTableRecord
100
AcDbTextStyleTableRecord
  2
STANDARD
 70
0
 40
0.0
 41
0.85
 50
0.0
 71
0
 42
0.2
  3
txt
  4

  0
STYLE
  5
1FF
100
AcDbSymbolTableRecord
100
AcDbTextStyleTableRecord
  2
TEXTSTYLE_1
 70
0
 40
0.0
 41
0.8
 50
0.0
 71
0
 42
0.2
  3
gdt
  4

  0
STYLE
  5
200
100
AcDbSymbolTableRecord
100
AcDbTextStyleTableRecord
  2
TEXTSTYLE_2
 70
0
 40
0.0
 41
0.5526315789
 50
0.0
 71
0
 42
0.2
  3
txt
  4

  0
STYLE
  5
201
100
AcDbSymbolTableRecord
100
AcDbTextStyleTableRecord
  2
TEXTSTYLE_3
 70
0
 40
0.0
 41
0.75
 50
0.0
 71
0
 42
0.2
  3
txt
  4

  0
ENDTAB
  0
TABLE
  2
VIEW
  5
6
100
AcDbSymbolTable
 70
0
  0
ENDTAB
  0
TABLE
  2
UCS
  5
7
100
AcDbSymbolTable
 70
0
  0
ENDTAB
  0
TABLE
  2
APPID
  5
9
100
AcDbSymbolTable
 70
1
  0
APPID
  5
202
100
AcDbSymbolTableRecord
100
AcDbRegAppTableRecord
  2
ACAD
 70
0
  0
ENDTAB
  0
TABLE
  2
BLOCK_RECORD
  5
1
100
AcDbSymbolTable
 70
0
  0
BLOCK_RECORD
  5
203
100
AcDbSymbolTableRecord
100
AcDbBlockTableRecord
  2
*Model_Space
  0
BLOCK_RECORD
  5
204
100
AcDbSymbolTableRecord
100
AcDbBlockTableRecord
  2
*Paper_Space
  0
ENDTAB
  0
TABLE
  2
DIMSTYLE
  5
A
100
AcDbSymbolTable
 70
1
100
AcDbDimStyleTable
 71
0
  0
DIMSTYLE
105
205
100
AcDbSymbolTableRecord
100
AcDbDimStyleTableRecord
  2
STANDARD
 70
0
  3

  4

 40
1.0
 41
3.5
 42
0.0625
 43
0.38
 44
0.18
 45
0.0
 46
0.0
 47
0.01
 48
0.01
140
3.5
141
0.09
142
0.0
143
25.4
144
1.0
145
0.0
146
1.0
147
0.09
 71
1.0
 72
0.0
 73
0
 74
0
 75
0
 76
0
 77
1
 78
8
170
0
171
2
172
0
173
0
174
0
175
0
176
0
177
0
178
0
270
2
271
2
272
2
273
2
274
2
275
0
280
0
281
0
282
0
283
1
284
8
285
0
286
0
287
3
288
0
340
11
  0
ENDTAB
  0
ENDSEC
  0
SECTION
  2
BLOCKS
  0
BLOCK
  5
20
100
AcDbEntity
  8
0
100
AcDbBlockBegin
  2
*Model_Space
 70
0
 10
0.0
 20
0.0
 30
0.0
  3
*Model_Space
  1

  0
ENDBLK
  5
21
100
AcDbEntity
  8
0
100
AcDbBlockEnd
  0
BLOCK
  5
1C
100
AcDbEntity
  8
0
100
AcDbBlockBegin
  2
*Paper_Space
 70
0
 10
0.0
 20
0.0
 30
0.0
  3
*Paper_Space
  1

  0
ENDBLK
  5
1D
100
AcDbEntity
  8
0
100
AcDbBlockEnd
  0
ENDSEC
  0
SECTION
  2
ENTITIES
  0
MTEXT
  5
206
100
AcDbEntity
  8
SLD-0
100
AcDbMText
 62
7
  6
CONTINUOUS
  7
TEXTSTYLE_2
 71
1
 72
1
 10
203.3991918587
 20
2.0353759213
 30
0.0
 11
1.0
 21
0.0
 31
0.0
  1
SCALE:10:1
 40
1.3229166667
 41
7.3108552632
  0
MTEXT
  5
207
100
AcDbEntity
  8
SLD-0
100
AcDbMText
 62
7
  6
CONTINUOUS
  7
TEXTSTYLE_2
 71
1
 72
1
 10
203.5222038367
 20
8.6954081448
 30
0.0
 11
1.0
 21
0.0
 31
0.0
  1
SIZE
 40
1.3229166667
 41
2.9243421053
  0
MTEXT
  5
208
100
AcDbEntity
  8
SLD-0
100
AcDbMText
 62
7
  6
CONTINUOUS
  7
TEXTSTYLE_2
 71
1
 72
1
 10
208.4735520539
 20
8.5915025207
 30
0.0
 11
1.0
 21
0.0
 31
0.0
  1
DWG.  NO.
 40
1.3229166667
 41
6.5797697368
  0
MTEXT
  5
209
100
AcDbEntity
  8
SLD-0
100
AcDbMText
 62
7
  6
CONTINUOUS
  7
TEXTSTYLE_2
 71
1
 72
1
 10
204.0103793951
 20
6.4733475285
 30
0.0
 11
1.0
 21
0.0
 31
0.0
  1
A
 40
2.54
 41
1.4036842105
  0
MTEXT
  5
20A
100
AcDbEntity
  8
SLD-0
100
AcDbMText
 62
7
  6
CONTINUOUS
  7
TEXTSTYLE_2
 71
1
 72
1
 10
256.2244326572
 20
8.512920824
 30
0.0
 11
1.0
 21
0.0
 31
0.0
  1
REV.
 40
1.3229166667
 41
2.9243421053
  0
MTEXT
  5
20B
100
AcDbEntity
  8
SLD-0
100
AcDbMText
 62
7
  6
CONTINUOUS
  7
TEXTSTYLE_2
 71
1
 72
1
 10
135.7574839307
 20
17.2168417374
 30
0.0
 11
1.0
 21
0.0
 31
0.0
  1
MATERIAL
 40
1.3229166667
 41
5.8486842105
  0
MTEXT
  5
20C
100
AcDbEntity
  8
SLD-0
100
AcDbMText
 62
7
  6
CONTINUOUS
  7
TEXTSTYLE_2
 71
1
 72
1
 10
135.727817028
 20
10.7379130629
 30
0.0
 11
1.0
 21
0.0
 31
0.0
  1
FINISH
 40
1.3229166667
 41
4.3865131579
  0
MTEXT
  5
20D
100
AcDbEntity
  8
SLD-0
100
AcDbMText
 62
7
  6
CONTINUOUS
  7
TEXTSTYLE_2
 71
1
 72
1
 10
150.114233588
 20
16.3267195847
 30
0.0
 11
1.0
 21
0.0
 31
0.0
  1
--
 40
2.38125
 41
2.6319078947
  0
MTEXT
  5
20E
100
AcDbEntity
  8
SLD-0
100
AcDbMText
 62
7
  6
CONTINUOUS
  7
TEXTSTYLE_2
 71
1
 72
1
 10
150.0499478069
 20
9.8898153887
 30
0.0
 11
1.0
 21
0.0
 31
0.0
  1
--
 40
2.38125
 41
2.6319078947
  0
MTEXT
  5
20F
100
AcDbEntity
  8
SLD-0
100
AcDbMText
 62
7
  6
CONTINUOUS
  7
TEXTSTYLE_2
 71
1
 72
1
 10
137.7539700626
 20
3.3418032385
 30
0.0
 11
1.0
 21
0.0
 31
0.0
  1
DO  NOT  SCALE  DRAWING
 40
1.5875
 41
20.1779605263
  0
MTEXT
  5
210
100
AcDbEntity
  8
SLD-0
100
AcDbMText
 62
7
  6
CONTINUOUS
  7
TEXTSTYLE_2
 71
1
 72
1
 10
114.7571617583
 20
3.1312141091
 30
0.0
 11
1.0
 21
0.0
 31
0.0
  1
APPLICATION
 40
1.5875
 41
9.6503289474
  0
MTEXT
  5
211
100
AcDbEntity
  8
SLD-0
100
AcDbMText
 62
7
  6
CONTINUOUS
  7
TEXTSTYLE_2
 71
1
 72
1
 10
123.6220630559
 20
9.2965875577
 30
0.0
 11
1.0
 21
0.0
 31
0.0
  1
USED ON
 40
1.5875
 41
6.1411184211
  0
MTEXT
  5
212
100
AcDbEntity
  8
SLD-0
100
AcDbMText
 62
7
  6
CONTINUOUS
  7
TEXTSTYLE_2
 71
1
 72
1
 10
109.9525544182
 20
9.2430243387
 30
0.0
 11
1.0
 21
0.0
 31
0.0
  1
NEXT ASSY
 40
1.5875
 41
7.8957236842
  0
MTEXT
  5
213
100
AcDbEntity
  8
SLD-0
100
AcDbMText
 62
7
  6
CONTINUOUS
  7
TEXTSTYLE_2
 71
1
 72
1
 10
182.4028896534
 20
36.658722621
 30
0.0
 11
1.0
 21
0.0
 31
0.0
  1
NAME
 40
1.3229166667
 41
2.9243421053
  0
MTEXT
  5
214
100
AcDbEntity
  8
SLD-0
100
AcDbMText
 62
7
  6
CONTINUOUS
  7
TEXTSTYLE_2
 71
1
 72
1
 10
194.6312135517
 20
36.6072861712
 30
0.0
 11
1.0
 21
0.0
 31
0.0
  1
DATE
 40
1.3229166667
 41
2.9243421053
  0
MTEXT
  5
215
100
AcDbEntity
  8
SLD-0
100
AcDbMText
 62
7
  6
CONTINUOUS
  7
TEXTSTYLE_2
 71
1
 72
1
 10
168.9042831847
 20
32.9138053322
 30
0.0
 11
1.0
 21
0.0
 31
0.0
  1
DRAWN
 40
1.3229166667
 41
3.6554276316
  0
MTEXT
  5
216
100
AcDbEntity
  8
SLD-0
100
AcDbMText
 62
7
  6
CONTINUOUS
  7
TEXTSTYLE_2
 71
1
 72
1
 10
168.9651053362
 20
28.8558745187
 30
0.0
 11
1.0
 21
0.0
 31
0.0
  1
CHECKED
 40
1.3229166667
 41
5.1175986842
  0
MTEXT
  5
217
100
AcDbEntity
  8
SLD-0
100
AcDbMText
 62
7
  6
CONTINUOUS
  7
TEXTSTYLE_2
 71
1
 72
1
 10
168.9781449907
 20
25.239090746
 30
0.0
 11
1.0
 21
0.0
 31
0.0
  1
ENG APPR.
 40
1.3229166667
 41
6.5797697368
  0
MTEXT
  5
218
100
AcDbEntity
  8
SLD-0
100
AcDbMText
 62
7
  6
CONTINUOUS
  7
TEXTSTYLE_2
 71
1
 72
1
 10
168.9897388248
 20
21.4563416084
 30
0.0
 11
1.0
 21
0.0
 31
0.0
  1
MFG APPR.
 40
1.3229166667
 41
6.5797697368
  0
MTEXT
  5
219
100
AcDbEntity
  8
SLD-0
100
AcDbMText
 62
7
  6
CONTINUOUS
  7
TEXTSTYLE_2
 71
1
 72
1
 10
169.0881954596
 20
17.7140799348
 30
0.0
 11
1.0
 21
0.0
 31
0.0
  1
Q.A.
 40
1.3229166667
 41
2.9243421053
  0
MTEXT
  5
21A
100
AcDbEntity
  8
SLD-0
100
AcDbMText
 62
7
  6
CONTINUOUS
  7
TEXTSTYLE_2
 71
1
 72
1
 10
244.826949284
 20
2.0525778202
 30
0.0
 11
1.0
 21
0.0
 31
0.0
  1
SHEET 1 OF 1
 40
1.27
 41
8.4221052632
  0
MTEXT
  5
21B
100
AcDbEntity
  8
SLD-0
100
AcDbMText
 62
7
  6
CONTINUOUS
  7
TEXTSTYLE_2
 71
1
 72
1
 10
215.3675662367
 20
1.9460753429
 30
0.0
 11
1.0
 21
0.0
 31
0.0
  1
WEIGHT:
 40
1.3229166667
 41
5.1175986842
  0
MTEXT
  5
21C
100
AcDbEntity
  8
SLD-0
100
AcDbMText
 62
7
  6
CONTINUOUS
  7
TEXTSTYLE_2
 71
1
 72
1
 10
169.1494361392
 20
14.1844189621
 30
0.0
 11
1.0
 21
0.0
 31
0.0
  1
COMMENTS:
 40
1.3229166667
 41
6.5797697368
  0
MTEXT
  5
21D
100
AcDbEntity
  8
SLD-0
100
AcDbMText
 62
7
  6
CONTINUOUS
  7
TEXTSTYLE_2
 71
1
 72
1
 10
71.821782096
 20
21.0748839354
 30
0.0
 11
1.0
 21
0.0
 31
0.0
  1
PROPRIETARY AND CONFIDENTIAL
 40
1.524
 41
23.5818947368
  0
MTEXT
  5
21E
100
AcDbEntity
  8
SLD-0
100
AcDbMText
 62
7
  6
CONTINUOUS
  7
TEXTSTYLE_3
 71
1
 72
1
 10
208.3254653509
 20
35.7335279533
 30
0.0
 11
1.0
 21
0.0
 31
0.0
  1
Fatash Industry\P  Schyzo Freni
 40
3.5
 41
39.375
  0
MTEXT
  5
21F
100
AcDbEntity
  8
SLD-0
100
AcDbMText
 62
7
  6
CONTINUOUS
  7
TEXTSTYLE_3
 71
1
 72
1
 10
67.0596871509
 20
16.3734968175
 30
0.0
 11
1.0
 21
0.0
 31
0.0
  1
Fatash Industry
 40
3.5
 41
39.375
  0
LINE
  5
220
100
AcDbEntity
  8
SLD-0
100
AcDbLine
 62
7
  6
CONTINUOUS
 10
0.0
 20
198.12
 11
0.0
 21
0.0
  0
LINE
  5
221
100
AcDbEntity
  8
0
100
AcDbLine
 62
7
  6
CONTINUOUS
 10
0.0
 20
0.0
 11
0.0
 21
198.12
  0
LINE
  5
222
100
AcDbEntity
  8
0
100
AcDbLine
 62
7
  6
CONTINUOUS
 10
0.0
 20
0.0
 11
261.62
 21
0.0
  0
LINE
  5
223
100
AcDbEntity
  8
SLD-0
100
AcDbLine
 62
7
  6
CONTINUOUS
 10
261.62
 20
0.0
 11
0.0
 21
0.0
  0
LINE
  5
224
100
AcDbEntity
  8
SLD-0
100
AcDbLine
 62
7
  6
CONTINUOUS
 10
202.7338845648
 20
3.175
 11
261.62
 21
3.175
  0
LINE
  5
225
100
AcDbEntity
  8
SLD-0
100
AcDbLine
 62
7
  6
CONTINUOUS
 10
108.394799098
 20
5.7771926787
 11
168.0715121819
 21
5.7771926787
  0
LINE
  5
226
100
AcDbEntity
  8
SLD-0
100
AcDbLine
 62
7
  6
CONTINUOUS
 10
236.6574451856
 20
41.5710747721
 11
235.7592763356
 21
41.3439020906
  0
LINE
  5
227
100
AcDbEntity
  8
SLD-0
100
AcDbLine
 62
7
  6
CONTINUOUS
 10
202.7338845648
 20
9.525
 11
261.62
 21
9.525
  0
LINE
  5
228
100
AcDbEntity
  8
SLD-0
100
AcDbLine
 62
7
  6
CONTINUOUS
 10
108.394799098
 20
11.43
 11
134.62
 21
11.43
  0
LINE
  5
229
100
AcDbEntity
  8
SLD-0
100
AcDbLine
 62
7
  6
CONTINUOUS
 10
134.62
 20
12.1271926787
 11
168.0715121819
 21
12.1271926787
  0
LINE
  5
22A
100
AcDbEntity
  8
SLD-0
100
AcDbLine
 62
7
  6
CONTINUOUS
 10
108.394799098
 20
15.24
 11
134.62
 21
15.24
  0
LINE
  5
22B
100
AcDbEntity
  8
SLD-0
100
AcDbLine
 62
7
  6
CONTINUOUS
 10
168.0715121819
 20
15.24
 11
202.7338845648
 21
15.24
  0
LINE
  5
22C
100
AcDbEntity
  8
SLD-0
100
AcDbLine
 62
7
  6
CONTINUOUS
 10
230.5814100006
 20
42.6704047073
 11
230.7955776663
 21
42.709269201
  0
LINE
  5
22D
100
AcDbEntity
  8
SLD-0
100
AcDbLine
 62
7
  6
CONTINUOUS
 10
232.1095397196
 20
44.3394771418
 11
232.3237073853
 21
44.3783416356
  0
LINE
  5
22E
100
AcDbEntity
  8
SLD-0
100
AcDbLine
 62
7
  6
CONTINUOUS
 10
235.7592763356
 20
41.3439020906
 11
234.8560735838
 21
41.1898527044
  0
LINE
  5
22F
100
AcDbEntity
  8
SLD-0
100
AcDbLine
 62
7
  6
CONTINUOUS
 10
168.0715121819
 20
18.3551172472
 11
134.62
 21
18.3551172472
  0
LINE
  5
230
100
AcDbEntity
  8
SLD-0
100
AcDbLine
 62
7
  6
CONTINUOUS
 10
108.394799098
 20
19.05
 11
134.62
 21
19.05
  0
LINE
  5
231
100
AcDbEntity
  8
SLD-0
100
AcDbLine
 62
7
  6
CONTINUOUS
 10
168.0715121819
 20
19.05
 11
202.7338845648
 21
19.05
  0
LINE
  5
232
100
AcDbEntity
  8
SLD-0
100
AcDbLine
 62
7
  6
CONTINUOUS
 10
67.0596871509
 20
22.86
 11
134.62
 21
22.86
  0
LINE
  5
233
100
AcDbEntity
  8
SLD-0
100
AcDbLine
 62
7
  6
CONTINUOUS
 10
168.0715121819
 20
22.86
 11
202.7338845648
 21
22.86
  0
LINE
  5
234
100
AcDbEntity
  8
SLD-0
100
AcDbLine
 62
7
  6
CONTINUOUS
 10
108.394799098
 20
26.67
 11
134.62
 21
26.67
  0
LINE
  5
235
100
AcDbEntity
  8
SLD-0
100
AcDbLine
 62
7
  6
CONTINUOUS
 10
168.0715121819
 20
26.67
 11
202.7338845648
 21
26.67
  0
LINE
  5
236
100
AcDbEntity
  8
SLD-0
100
AcDbLine
 62
7
  6
CONTINUOUS
 10
67.0596871509
 20
22.86
 11
67.0596871509
 21
0.0
  0
LINE
  5
237
100
AcDbEntity
  8
SLD-0
100
AcDbLine
 62
7
  6
CONTINUOUS
 10
233.7053028426
 20
46.1516376965
 11
233.9195998658
 21
46.1905136334
  0
LINE
  5
238
100
AcDbEntity
  8
SLD-0
100
AcDbLine
 62
7
  6
CONTINUOUS
 10
243.3561420533
 20
50.5833352162
 11
243.5704390765
 21
50.6222111532
  0
LINE
  5
239
100
AcDbEntity
  8
SLD-0
100
AcDbLine
 62
7
  6
CONTINUOUS
 10
242.1240305251
 20
53.0240883115
 11
242.3381981907
 21
53.0629528052
  0
LINE
  5
23A
100
AcDbEntity
  8
SLD-0
100
AcDbLine
 62
7
  6
CONTINUOUS
 10
241.2005228294
 20
54.7629977636
 11
241.4146904951
 21
54.8018622573
  0
LINE
  5
23B
100
AcDbEntity
  8
SLD-0
100
AcDbLine
 62
7
  6
CONTINUOUS
 10
244.2570208475
 20
48.9546669738
 11
244.4711841454
 21
48.9933856886
  0
LINE
  5
23C
100
AcDbEntity
  8
SLD-0
100
AcDbLine
 62
7
  6
CONTINUOUS
 10
235.2399135062
 20
47.8776957388
 11
235.4540768041
 21
47.9164144537
  0
LINE
  5
23D
100
AcDbEntity
  8
SLD-0
100
AcDbLine
 62
7
  6
CONTINUOUS
 10
234.8560735838
 20
41.1898527044
 11
233.9527699874
 21
41.1099445722
  0
LINE
  5
23E
100
AcDbEntity
  8
SLD-0
100
AcDbLine
 62
7
  6
CONTINUOUS
 10
108.394799098
 20
30.48
 11
134.62
 21
30.48
  0
LINE
  5
23F
100
AcDbEntity
  8
SLD-0
100
AcDbLine
 62
7
  6
CONTINUOUS
 10
168.0715121819
 20
30.48
 11
261.62
 21
30.48
  0
LINE
  5
240
100
AcDbEntity
  8
SLD-0
100
AcDbLine
 62
7
  6
CONTINUOUS
 10
108.394799098
 20
34.29
 11
134.62
 21
34.29
  0
LINE
  5
241
100
AcDbEntity
  8
SLD-0
100
AcDbLine
 62
7
  6
CONTINUOUS
 10
168.0715121819
 20
34.29
 11
202.7338845648
 21
34.29
  0
LINE
  5
242
100
AcDbEntity
  8
SLD-0
100
AcDbLine
 62
7
  6
CONTINUOUS
 10
248.2757366039
 20
72.1649449063
 11
248.7129581124
 21
72.2747958072
  0
LINE
  5
243
100
AcDbEntity
  8
SLD-0
100
AcDbLine
 62
7
  6
CONTINUOUS
 10
248.0867227383
 20
72.1746309111
 11
248.5228069246
 21
72.2827648944
  0
LINE
  5
244
100
AcDbEntity
  8
SLD-0
100
AcDbLine
 62
7
  6
CONTINUOUS
 10
235.1907457357
 20
58.2933359238
 11
234.7730241159
 21
58.1995349251
  0
LINE
  5
245
100
AcDbEntity
  8
SLD-0
100
AcDbLine
 62
7
  6
CONTINUOUS
 10
227.9816714594
 20
55.9037718519
 11
228.1959684826
 21
55.9426477889
  0
LINE
  5
246
100
AcDbEntity
  8
SLD-0
100
AcDbLine
 62
7
  6
CONTINUOUS
 10
226.6736070426
 20
58.1175363582
 11
226.8879040658
 21
58.1564122952
  0
LINE
  5
247
100
AcDbEntity
  8
SLD-0
100
AcDbLine
 62
7
  6
CONTINUOUS
 10
235.147954803
 20
61.1840244322
 11
235.3621224687
 21
61.222888926
  0
LINE
  5
248
100
AcDbEntity
  8
SLD-0
100
AcDbLine
 62
7
  6
CONTINUOUS
 10
229.2222447577
 20
53.8272485518
 11
229.4364080555
 21
53.8659672667
  0
LINE
  5
249
100
AcDbEntity
  8
SLD-0
100
AcDbLine
 62
7
  6
CONTINUOUS
 10
225.7945625902
 20
59.5319374653
 11
226.008725888
 21
59.5706561801
  0
LINE
  5
24A
100
AcDbEntity
  8
SLD-0
100
AcDbLine
 62
7
  6
CONTINUOUS
 10
236.5221783145
 20
62.8146198831
 11
236.7363416123
 21
62.853338598
  0
LINE
  5
24B
100
AcDbEntity
  8
SLD-0
100
AcDbLine
 62
7
  6
CONTINUOUS
 10
235.0150150229
 20
52.4282139753
 11
235.4344468736
 21
52.4843642147
  0
LINE
  5
24C
100
AcDbEntity
  8
SLD-0
100
AcDbLine
 62
7
  6
CONTINUOUS
 10
233.9527699874
 20
41.1099445722
 11
233.0540224174
 21
41.1045896505
  0
LINE
  5
24D
100
AcDbEntity
  8
SLD-0
100
AcDbLine
 62
7
  6
CONTINUOUS
 10
108.394799098
 20
38.1
 11
261.62
 21
38.1
  0
LINE
  5
24E
100
AcDbEntity
  8
SLD-0
100
AcDbLine
 62
7
  6
CONTINUOUS
 10
210.7424266838
 20
40.7062164763
 11
212.3981553855
 21
40.7062164763
  0
LINE
  5
24F
100
AcDbEntity
  8
SLD-0
100
AcDbLine
 62
7
  6
CONTINUOUS
 10
230.8381989049
 20
44.1317795774
 11
230.6252280234
 21
44.1328584987
  0
LINE
  5
250
100
AcDbEntity
  8
SLD-0
100
AcDbLine
 62
7
  6
CONTINUOUS
 10
225.2012235782
 20
68.6235659736
 11
226.87861541
 21
69.0666494097
  0
LINE
  5
251
100
AcDbEntity
  8
SLD-0
100
AcDbLine
 62
7
  6
CONTINUOUS
 10
224.3914454723
 20
68.5519313025
 11
226.6606061971
 21
69.1513213834
  0
LINE
  5
252
100
AcDbEntity
  8
SLD-0
100
AcDbLine
 62
7
  6
CONTINUOUS
 10
237.2953029245
 20
74.2902542791
 11
236.8672923965
 21
74.1806504684
  0
LINE
  5
253
100
AcDbEntity
  8
SLD-0
100
AcDbLine
 62
7
  6
CONTINUOUS
 10
237.3358283362
 20
74.3163939728
 11
236.8975690902
 21
74.2066993333
  0
LINE
  5
254
100
AcDbEntity
  8
SLD-0
100
AcDbLine
 62
7
  6
CONTINUOUS
 10
236.7269545522
 20
71.8131738317
 11
237.0056810223
 21
71.8709800502
  0
LINE
  5
255
100
AcDbEntity
  8
SLD-0
100
AcDbLine
 62
7
  6
CONTINUOUS
 10
237.7831268486
 20
74.3882271004
 11
237.2953029245
 21
74.2902542791
  0
LINE
  5
256
100
AcDbEntity
  8
SLD-0
100
AcDbLine
 62
7
  6
CONTINUOUS
 10
247.7786605926
 20
72.0668643016
 11
248.2757366039
 21
72.1649449063
  0
LINE
  5
257
100
AcDbEntity
  8
SLD-0
100
AcDbLine
 62
7
  6
CONTINUOUS
 10
237.83383463
 20
74.4142983683
 11
237.3358283362
 21
74.3163939728
  0
LINE
  5
258
100
AcDbEntity
  8
SLD-0
100
AcDbLine
 62
7
  6
CONTINUOUS
 10
247.5912817248
 20
72.0782589951
 11
248.0867227383
 21
72.1746309111
  0
LINE
  5
259
100
AcDbEntity
  8
SLD-0
100
AcDbLine
 62
7
  6
CONTINUOUS
 10
238.2853457985
 20
64.7497613987
 11
238.4995134641
 21
64.7886258924
  0
LINE
  5
25A
100
AcDbEntity
  8
SLD-0
100
AcDbLine
 62
7
  6
CONTINUOUS
 10
239.578462911
 20
66.2181936026
 11
239.7926262088
 21
66.2569123175
  0
LINE
  5
25B
100
AcDbEntity
  8
SLD-0
100
AcDbLine
 62
7
  6
CONTINUOUS
 10
233.7552698833
 20
69.2554844942
 11
233.1154326577
 21
69.1417438978
  0
LINE
  5
25C
100
AcDbEntity
  8
SLD-0
100
AcDbLine
 62
7
  6
CONTINUOUS
 10
247.2269542503
 20
71.9816090828
 11
247.7786605926
 21
72.0668643016
  0
LINE
  5
25D
100
AcDbEntity
  8
SLD-0
100
AcDbLine
 62
7
  6
CONTINUOUS
 10
231.9431073046
 20
62.0111362934
 11
226.7659604431
 21
61.5531550148
  0
LINE
  5
25E
100
AcDbEntity
  8
SLD-0
100
AcDbLine
 62
7
  6
CONTINUOUS
 10
228.0010738357
 20
61.7215637516
 11
227.5802738072
 21
61.6843388978
  0
LINE
  5
25F
100
AcDbEntity
  8
SLD-0
100
AcDbLine
 62
7
  6
CONTINUOUS
 10
231.7539943481
 20
62.0535549778
 11
232.1747943766
 21
62.0907798316
  0
LINE
  5
260
100
AcDbEntity
  8
SLD-0
100
AcDbLine
 62
7
  6
CONTINUOUS
 10
223.8559702917
 20
62.6830982586
 11
224.2502520276
 21
62.7179772486
  0
LINE
  5
261
100
AcDbEntity
  8
SLD-0
100
AcDbLine
 62
7
  6
CONTINUOUS
 10
235.6090332162
 20
58.3112920948
 11
235.1907457357
 21
58.2933359238
  0
LINE
  5
262
100
AcDbEntity
  8
SLD-0
100
AcDbLine
 62
7
  6
CONTINUOUS
 10
232.3663329918
 20
45.8009977908
 11
232.1533577424
 21
45.8019309332
  0
LINE
  5
263
100
AcDbEntity
  8
SLD-0
100
AcDbLine
 62
7
  6
CONTINUOUS
 10
235.4967024106
 20
49.339070609
 11
235.2837271612
 21
49.3400037513
  0
LINE
  5
264
100
AcDbEntity
  8
SLD-0
100
AcDbLine
 62
7
  6
CONTINUOUS
 10
233.9622211044
 20
47.6130240098
 11
233.7491208654
 21
47.6140914878
  0
LINE
  5
265
100
AcDbEntity
  8
SLD-0
100
AcDbLine
 62
7
  6
CONTINUOUS
 10
244.5138097519
 20
50.4160418439
 11
244.3008388703
 21
50.4171207651
  0
LINE
  5
266
100
AcDbEntity
  8
SLD-0
100
AcDbLine
 62
7
  6
CONTINUOUS
 10
243.6130603152
 20
52.0447215295
 11
243.3999600761
 21
52.0457890075
  0
LINE
  5
267
100
AcDbEntity
  8
SLD-0
100
AcDbLine
 62
7
  6
CONTINUOUS
 10
233.0540224174
 20
41.1045896505
 11
232.1645996308
 21
41.1736282235
  0
LINE
  5
268
100
AcDbEntity
  8
SLD-0
100
AcDbLine
 62
7
  6
CONTINUOUS
 10
231.0769888353
 20
82.931173149
 11
230.8845268893
 21
82.8821290199
  0
LINE
  5
269
100
AcDbEntity
  8
SLD-0
100
AcDbLine
 62
7
  6
CONTINUOUS
 10
232.5973888363
 20
78.1555257168
 11
232.7830711823
 21
78.199369943
  0
LINE
  5
26A
100
AcDbEntity
  8
SLD-0
100
AcDbLine
 62
7
  6
CONTINUOUS
 10
238.3256965301
 20
74.4735147333
 11
237.7831268486
 21
74.3882271004
  0
LINE
  5
26B
100
AcDbEntity
  8
SLD-0
100
AcDbLine
 62
7
  6
CONTINUOUS
 10
238.3860976758
 20
74.4993374202
 11
237.83383463
 21
74.4142983683
  0
LINE
  5
26C
100
AcDbEntity
  8
SLD-0
100
AcDbLine
 62
7
  6
CONTINUOUS
 10
247.0421226638
 20
71.9947282623
 11
247.5912817248
 21
72.0782589951
  0
LINE
  5
26D
100
AcDbEntity
  8
SLD-0
100
AcDbLine
 62
7
  6
CONTINUOUS
 10
231.5991748479
 20
72.8087429234
 11
231.6555944762
 21
72.8171781674
  0
LINE
  5
26E
100
AcDbEntity
  8
SLD-0
100
AcDbLine
 62
7
  6
CONTINUOUS
 10
238.9167618252
 20
74.5451521085
 11
238.3256965301
 21
74.4735147333
  0
LINE
  5
26F
100
AcDbEntity
  8
SLD-0
100
AcDbLine
 62
7
  6
CONTINUOUS
 10
246.6268969512
 20
71.9101329694
 11
247.2269542503
 21
71.9816090828
  0
LINE
  5
270
100
AcDbEntity
  8
SLD-0
100
AcDbLine
 62
7
  6
CONTINUOUS
 10
238.9868509461
 20
74.5706049619
 11
238.3860976758
 21
74.4993374202
  0
LINE
  5
271
100
AcDbEntity
  8
SLD-0
100
AcDbLine
 62
7
  6
CONTINUOUS
 10
246.4451610849
 20
71.9249486946
 11
247.0421226638
 21
71.9947282623
  0
LINE
  5
272
100
AcDbEntity
  8
SLD-0
100
AcDbLine
 62
7
  6
CONTINUOUS
 10
245.9850511651
 20
71.8532180828
 11
246.6268969512
 21
71.9101329694
  0
LINE
  5
273
100
AcDbEntity
  8
SLD-0
100
AcDbLine
 62
7
  6
CONTINUOUS
 10
226.8614760454
 20
64.7410477091
 11
227.181506562
 21
64.7693582804
  0
LINE
  5
274
100
AcDbEntity
  8
SLD-0
100
AcDbLine
 62
7
  6
CONTINUOUS
 10
228.2476712822
 20
64.8636734495
 11
231.3552271029
 21
65.1385743604
  0
LINE
  5
275
100
AcDbEntity
  8
SLD-0
100
AcDbLine
 62
7
  6
CONTINUOUS
 10
226.0988348991
 20
64.945837785
 11
226.1179798128
 21
64.9475313843
  0
LINE
  5
276
100
AcDbEntity
  8
SLD-0
100
AcDbLine
 62
7
  6
CONTINUOUS
 10
226.120468723
 20
65.0287793419
 11
226.9888457877
 21
65.1055977998
  0
LINE
  5
277
100
AcDbEntity
  8
SLD-0
100
AcDbLine
 62
7
  6
CONTINUOUS
 10
228.2755650879
 20
65.21942369
 11
231.162436971
 21
65.4748024365
  0
LINE
  5
278
100
AcDbEntity
  8
SLD-0
100
AcDbLine
 62
7
  6
CONTINUOUS
 10
226.5942345179
 20
65.5896925694
 11
224.8402758378
 21
65.4345337029
  0
LINE
  5
279
100
AcDbEntity
  8
SLD-0
100
AcDbLine
 62
7
  6
CONTINUOUS
 10
226.8481605766
 20
65.8291822512
 11
224.385063945
 21
65.611291553
  0
LINE
  5
27A
100
AcDbEntity
  8
SLD-0
100
AcDbLine
 62
7
  6
CONTINUOUS
 10
227.0136372234
 20
66.1418752872
 11
223.951485894
 21
65.8709909529
  0
LINE
  5
27B
100
AcDbEntity
  8
SLD-0
100
AcDbLine
 62
7
  6
CONTINUOUS
 10
226.7217592996
 20
66.4693378149
 11
225.1324727487
 21
66.3287461905
  0
LINE
  5
27C
100
AcDbEntity
  8
SLD-0
100
AcDbLine
 62
7
  6
CONTINUOUS
 10
224.0835125793
 20
66.2359529721
 11
223.2104786437
 21
66.1587225576
  0
LINE
  5
27D
100
AcDbEntity
  8
SLD-0
100
AcDbLine
 62
7
  6
CONTINUOUS
 10
238.2026247512
 20
68.7578721824
 11
237.9149336158
 21
68.7324224207
  0
LINE
  5
27E
100
AcDbEntity
  8
SLD-0
100
AcDbLine
 62
7
  6
CONTINUOUS
 10
232.533713416
 20
68.5147480201
 11
231.7238059526
 21
68.4431019059
  0
LINE
  5
27F
100
AcDbEntity
  8
SLD-0
100
AcDbLine
 62
7
  6
CONTINUOUS
 10
229.018414182
 20
68.2357893493
 11
229.8281922878
 21
68.3074240203
  0
LINE
  5
280
100
AcDbEntity
  8
SLD-0
100
AcDbLine
 62
7
  6
CONTINUOUS
 10
236.0908374505
 20
69.385171179
 11
233.8019854049
 21
69.1826945226
  0
LINE
  5
281
100
AcDbEntity
  8
SLD-0
100
AcDbLine
 62
7
  6
CONTINUOUS
 10
233.7410724673
 20
69.2776469255
 11
233.4532519744
 21
69.2521857205
  0
LINE
  5
282
100
AcDbEntity
  8
SLD-0
100
AcDbLine
 62
7
  6
CONTINUOUS
 10
224.3914454723
 20
68.5519313025
 11
225.2012235782
 21
68.6235659736
  0
LINE
  5
283
100
AcDbEntity
  8
SLD-0
100
AcDbLine
 62
7
  6
CONTINUOUS
 10
234.4057761299
 20
69.6232298951
 11
235.9014078328
 21
69.755536615
  0
LINE
  5
284
100
AcDbEntity
  8
SLD-0
100
AcDbLine
 62
7
  6
CONTINUOUS
 10
234.4347741216
 20
70.5910559239
 11
234.462456632
 21
70.5935047768
  0
LINE
  5
285
100
AcDbEntity
  8
SLD-0
100
AcDbLine
 62
7
  6
CONTINUOUS
 10
234.5824358277
 20
70.7228546606
 11
233.7725283643
 21
70.6512085463
  0
LINE
  5
286
100
AcDbEntity
  8
SLD-0
100
AcDbLine
 62
7
  6
CONTINUOUS
 10
231.0671365936
 20
70.4438959898
 11
231.8769146995
 21
70.5155306608
  0
LINE
  5
287
100
AcDbEntity
  8
SLD-0
100
AcDbLine
 62
7
  6
CONTINUOUS
 10
227.6598257809
 20
70.4270011947
 11
227.7378283684
 21
70.4339014673
  0
LINE
  5
288
100
AcDbEntity
  8
SLD-0
100
AcDbLine
 62
7
  6
CONTINUOUS
 10
231.1940323225
 20
70.7427256666
 11
233.7681177104
 21
70.9704346633
  0
LINE
  5
289
100
AcDbEntity
  8
SLD-0
100
AcDbLine
 62
7
  6
CONTINUOUS
 10
237.9949215994
 20
71.4020711728
 11
238.2826127348
 21
71.4275209345
  0
LINE
  5
28A
100
AcDbEntity
  8
SLD-0
100
AcDbLine
 62
7
  6
CONTINUOUS
 10
234.6230300591
 20
72.0816986013
 11
237.7871151182
 21
72.3616002073
  0
LINE
  5
28B
100
AcDbEntity
  8
SLD-0
100
AcDbLine
 62
7
  6
CONTINUOUS
 10
234.6314734016
 20
72.3595142216
 11
233.8215659382
 21
72.2878681073
  0
LINE
  5
28C
100
AcDbEntity
  8
SLD-0
100
AcDbLine
 62
7
  6
CONTINUOUS
 10
231.1161741676
 20
72.0805555507
 11
231.1803354999
 21
72.0862313968
  0
LINE
  5
28D
100
AcDbEntity
  8
SLD-0
100
AcDbLine
 62
7
  6
CONTINUOUS
 10
227.6169916271
 20
71.799837672
 11
227.5389890396
 21
71.7929373994
  0
LINE
  5
28E
100
AcDbEntity
  8
SLD-0
100
AcDbLine
 62
7
  6
CONTINUOUS
 10
234.5446436602
 20
72.4555415109
 11
231.2365836759
 21
72.1629035809
  0
LINE
  5
28F
100
AcDbEntity
  8
SLD-0
100
AcDbLine
 62
7
  6
CONTINUOUS
 10
245.8069888777
 20
71.8696909898
 11
246.4451610849
 21
71.9249486946
  0
LINE
  5
290
100
AcDbEntity
  8
SLD-0
100
AcDbLine
 62
7
  6
CONTINUOUS
 10
187.1716201541
 20
62.0078582025
 11
181.2078774211
 21
62.0078582025
  0
LINE
  5
291
100
AcDbEntity
  8
SLD-0
100
AcDbLine
 62
7
  6
CONTINUOUS
 10
182.1938872573
 20
62.9740494944
 11
183.1268489596
 21
62.9740494944
  0
LINE
  5
292
100
AcDbEntity
  8
SLD-0
100
AcDbLine
 62
7
  6
CONTINUOUS
 10
185.2331280944
 20
62.9740494944
 11
186.1659407851
 21
62.9740494944
  0
LINE
  5
293
100
AcDbEntity
  8
SLD-0
100
AcDbLine
 62
7
  6
CONTINUOUS
 10
215.3082577248
 20
62.9979065874
 11
213.8128345219
 21
62.9979065874
  0
LINE
  5
294
100
AcDbEntity
  8
SLD-0
100
AcDbLine
 62
7
  6
CONTINUOUS
 10
209.435620604
 20
62.9979065874
 11
207.9401972556
 21
62.9979065874
  0
LINE
  5
295
100
AcDbEntity
  8
SLD-0
100
AcDbLine
 62
7
  6
CONTINUOUS
 10
207.9401972556
 20
63.2957807997
 11
206.960307955
 21
63.2957807997
  0
LINE
  5
296
100
AcDbEntity
  8
SLD-0
100
AcDbLine
 62
7
  6
CONTINUOUS
 10
213.8128345219
 20
63.4051553229
 11
212.8941735687
 21
63.4051553229
  0
LINE
  5
297
100
AcDbEntity
  8
SLD-0
100
AcDbLine
 62
7
  6
CONTINUOUS
 10
210.3542815208
 20
63.4051553229
 11
209.435620604
 21
63.4051553229
  0
LINE
  5
298
100
AcDbEntity
  8
SLD-0
100
AcDbLine
 62
7
  6
CONTINUOUS
 10
226.0513514945
 20
60.9933123354
 11
225.8383762451
 21
60.9942454778
  0
LINE
  5
299
100
AcDbEntity
  8
SLD-0
100
AcDbLine
 62
7
  6
CONTINUOUS
 10
242.3808194294
 20
54.4854631816
 11
242.1678485479
 21
54.4865421029
  0
LINE
  5
29A
100
AcDbEntity
  8
SLD-0
100
AcDbLine
 62
7
  6
CONTINUOUS
 10
229.479033662
 20
55.2886234219
 11
229.2660627805
 21
55.2897023432
  0
LINE
  5
29B
100
AcDbEntity
  8
SLD-0
100
AcDbLine
 62
7
  6
CONTINUOUS
 10
241.4573117338
 20
56.2243726337
 11
241.2443408522
 21
56.2254515549
  0
LINE
  5
29C
100
AcDbEntity
  8
SLD-0
100
AcDbLine
 62
7
  6
CONTINUOUS
 10
228.2385897212
 20
57.3651581653
 11
228.0254894822
 21
57.3662256433
  0
LINE
  5
29D
100
AcDbEntity
  8
SLD-0
100
AcDbLine
 62
7
  6
CONTINUOUS
 10
226.9305253044
 20
59.5789226716
 11
226.7174250654
 21
59.5799901496
  0
LINE
  5
29E
100
AcDbEntity
  8
SLD-0
100
AcDbLine
 62
7
  6
CONTINUOUS
 10
235.4047437074
 20
62.6453993024
 11
235.1917728258
 21
62.6464782236
  0
LINE
  5
29F
100
AcDbEntity
  8
SLD-0
100
AcDbLine
 62
7
  6
CONTINUOUS
 10
234.6007090424
 20
52.448412066
 11
235.0150150229
 21
52.4282139753
  0
LINE
  5
2A0
100
AcDbEntity
  8
SLD-0
100
AcDbLine
 62
7
  6
CONTINUOUS
 10
232.1645996308
 20
41.1736282235
 11
231.2895334676
 21
41.3170692409
  0
LINE
  5
2A1
100
AcDbEntity
  8
SLD-0
100
AcDbLine
 62
7
  6
CONTINUOUS
 10
230.3754395205
 20
42.7113588737
 11
230.5814100006
 21
42.6704047073
  0
LINE
  5
2A2
100
AcDbEntity
  8
SLD-0
100
AcDbLine
 62
7
  6
CONTINUOUS
 10
232.1187085773
 20
82.6745661551
 11
232.2346366869
 21
82.6919024054
  0
LINE
  5
2A3
100
AcDbEntity
  8
SLD-0
100
AcDbLine
 62
7
  6
CONTINUOUS
 10
231.7788792735
 20
82.806521181
 11
231.6928767992
 21
82.7936613904
  0
LINE
  5
2A4
100
AcDbEntity
  8
SLD-0
100
AcDbLine
 62
7
  6
CONTINUOUS
 10
231.336248226
 20
82.9650726541
 11
231.0769888353
 21
82.931173149
  0
LINE
  5
2A5
100
AcDbEntity
  8
SLD-0
100
AcDbLine
 62
7
  6
CONTINUOUS
 10
232.3559608109
 20
78.1248166191
 11
232.5973888363
 21
78.1555257168
  0
LINE
  5
2A6
100
AcDbEntity
  8
SLD-0
100
AcDbLine
 62
7
  6
CONTINUOUS
 10
239.5499153728
 20
74.6023585486
 11
238.9167618252
 21
74.5451521085
  0
LINE
  5
2A7
100
AcDbEntity
  8
SLD-0
100
AcDbLine
 62
7
  6
CONTINUOUS
 10
233.6644082655
 20
72.7973351203
 11
230.3563482813
 21
72.5046971902
  0
LINE
  5
2A8
100
AcDbEntity
  8
SLD-0
100
AcDbLine
 62
7
  6
CONTINUOUS
 10
233.6015616683
 20
72.8217383259
 11
230.293501684
 21
72.5291003958
  0
LINE
  5
2A9
100
AcDbEntity
  8
SLD-0
100
AcDbLine
 62
7
  6
CONTINUOUS
 10
233.5199756596
 20
72.8534048639
 11
235.96379802
 21
73.0695905197
  0
LINE
  5
2AA
100
AcDbEntity
  8
SLD-0
100
AcDbLine
 62
7
  6
CONTINUOUS
 10
232.7213262736
 20
73.1635319353
 11
231.7027651225
 21
73.0734278778
  0
LINE
  5
2AB
100
AcDbEntity
  8
SLD-0
100
AcDbLine
 62
7
  6
CONTINUOUS
 10
231.318443916
 20
73.0394300172
 11
229.4132662893
 21
72.8708940052
  0
LINE
  5
2AC
100
AcDbEntity
  8
SLD-0
100
AcDbLine
 62
7
  6
CONTINUOUS
 10
229.0142667743
 20
74.3068741491
 11
229.8241742377
 21
74.3785202633
  0
LINE
  5
2AD
100
AcDbEntity
  8
SLD-0
100
AcDbLine
 62
7
  6
CONTINUOUS
 10
226.3088749857
 20
74.0995615995
 11
227.1186530915
 21
74.1711962705
  0
LINE
  5
2AE
100
AcDbEntity
  8
SLD-0
100
AcDbLine
 62
7
  6
CONTINUOUS
 10
229.056273213
 20
75.1700487446
 11
228.6354731845
 21
75.1328238908
  0
LINE
  5
2AF
100
AcDbEntity
  8
SLD-0
100
AcDbLine
 62
7
  6
CONTINUOUS
 10
232.8091937254
 20
75.5020399708
 11
233.2299937539
 21
75.5392648246
  0
LINE
  5
2B0
100
AcDbEntity
  8
SLD-0
100
AcDbLine
 62
7
  6
CONTINUOUS
 10
231.0930962398
 20
76.3532535848
 11
230.6722962113
 21
76.316028731
  0
LINE
  5
2B1
100
AcDbEntity
  8
SLD-0
100
AcDbLine
 62
7
  6
CONTINUOUS
 10
234.8460167522
 20
76.685244811
 11
235.2668167807
 21
76.7224696648
  0
LINE
  5
2B2
100
AcDbEntity
  8
SLD-0
100
AcDbLine
 62
7
  6
CONTINUOUS
 10
231.1171147944
 20
76.6244808433
 11
234.930962701
 21
76.9618618347
  0
LINE
  5
2B3
100
AcDbEntity
  8
SLD-0
100
AcDbLine
 62
7
  6
CONTINUOUS
 10
231.1494934829
 20
77.7051397304
 11
234.9633413895
 21
78.0425207218
  0
LINE
  5
2B4
100
AcDbEntity
  8
SLD-0
100
AcDbLine
 62
7
  6
CONTINUOUS
 10
234.8866462626
 20
78.041280015
 11
234.9517130976
 21
78.0470359639
  0
LINE
  5
2B5
100
AcDbEntity
  8
SLD-0
100
AcDbLine
 62
7
  6
CONTINUOUS
 10
230.7161448089
 20
77.7795029746
 11
231.1369448374
 21
77.8167278284
  0
LINE
  5
2B6
100
AcDbEntity
  8
SLD-0
100
AcDbLine
 62
7
  6
CONTINUOUS
 10
234.8898653498
 20
78.1487190545
 11
235.3106653783
 21
78.1859439084
  0
LINE
  5
2B7
100
AcDbEntity
  8
SLD-0
100
AcDbLine
 62
7
  6
CONTINUOUS
 10
230.6346834784
 20
78.9055523961
 11
228.7600342275
 21
78.7397169883
  0
LINE
  5
2B8
100
AcDbEntity
  8
SLD-0
100
AcDbLine
 62
7
  6
CONTINUOUS
 10
228.0603943275
 20
78.8107254727
 11
228.481194356
 21
78.8479503265
  0
LINE
  5
2B9
100
AcDbEntity
  8
SLD-0
100
AcDbLine
 62
7
  6
CONTINUOUS
 10
231.991751237
 20
80.5695427991
 11
232.9440813353
 21
80.6537879186
  0
LINE
  5
2BA
100
AcDbEntity
  8
SLD-0
100
AcDbLine
 62
7
  6
CONTINUOUS
 10
239.6292665005
 20
74.6272986087
 11
238.9868509461
 21
74.5706049619
  0
LINE
  5
2BB
100
AcDbEntity
  8
SLD-0
100
AcDbLine
 62
7
  6
CONTINUOUS
 10
240.2180702612
 20
74.6444938993
 11
239.5499153728
 21
74.6023585486
  0
LINE
  5
2BC
100
AcDbEntity
  8
SLD-0
100
AcDbLine
 62
7
  6
CONTINUOUS
 10
245.3082693798
 20
71.8114722584
 11
245.9850511651
 21
71.8532180828
  0
LINE
  5
2BD
100
AcDbEntity
  8
SLD-0
100
AcDbLine
 62
7
  6
CONTINUOUS
 10
240.3064852761
 20
74.6688130781
 11
239.6292665005
 21
74.6272986087
  0
LINE
  5
2BE
100
AcDbEntity
  8
SLD-0
100
AcDbLine
 62
7
  6
CONTINUOUS
 10
245.1347483954
 20
71.8295737743
 11
245.8069888777
 21
71.8696909898
  0
LINE
  5
2BF
100
AcDbEntity
  8
SLD-0
100
AcDbLine
 62
7
  6
CONTINUOUS
 10
232.0753018658
 20
78.1093408075
 11
232.3559608109
 21
78.1248166191
  0
LINE
  5
2C0
100
AcDbEntity
  8
SLD-0
100
AcDbLine
 62
7
  6
CONTINUOUS
 10
231.5283066717
 20
72.805918021
 11
231.5991748479
 21
72.8087429234
  0
LINE
  5
2C1
100
AcDbEntity
  8
SLD-0
100
AcDbLine
 62
7
  6
CONTINUOUS
 10
240.9138477313
 20
74.6710930027
 11
240.2180702612
 21
74.6444938993
  0
LINE
  5
2C2
100
AcDbEntity
  8
SLD-0
100
AcDbLine
 62
7
  6
CONTINUOUS
 10
244.6042121078
 20
71.7853745951
 11
245.3082693798
 21
71.8114722584
  0
LINE
  5
2C3
100
AcDbEntity
  8
SLD-0
100
AcDbLine
 62
7
  6
CONTINUOUS
 10
241.0110996933
 20
74.6946944031
 11
240.3064852761
 21
74.6688130781
  0
LINE
  5
2C4
100
AcDbEntity
  8
SLD-0
100
AcDbLine
 62
7
  6
CONTINUOUS
 10
244.4357443817
 20
71.8050292737
 11
245.1347483954
 21
71.8295737743
  0
LINE
  5
2C5
100
AcDbEntity
  8
SLD-0
100
AcDbLine
 62
7
  6
CONTINUOUS
 10
243.8803072574
 20
71.7751861487
 11
244.6042121078
 21
71.7853745951
  0
LINE
  5
2C6
100
AcDbEntity
  8
SLD-0
100
AcDbLine
 62
7
  6
CONTINUOUS
 10
243.7179562098
 20
71.7963511011
 11
244.4357443817
 21
71.8050292737
  0
LINE
  5
2C7
100
AcDbEntity
  8
SLD-0
100
AcDbLine
 62
7
  6
CONTINUOUS
 10
216.1155007748
 20
63.9640978792
 11
215.3082577248
 21
63.9640978792
  0
LINE
  5
2C8
100
AcDbEntity
  8
SLD-0
100
AcDbLine
 62
7
  6
CONTINUOUS
 10
181.2078774211
 20
65.2664441324
 11
182.1938872573
 21
65.2664441324
  0
LINE
  5
2C9
100
AcDbEntity
  8
SLD-0
100
AcDbLine
 62
7
  6
CONTINUOUS
 10
183.1268489596
 20
65.2664441324
 11
185.2331280944
 21
65.2664441324
  0
LINE
  5
2CA
100
AcDbEntity
  8
SLD-0
100
AcDbLine
 62
7
  6
CONTINUOUS
 10
186.1659407851
 20
65.2664441324
 11
187.1716201541
 21
65.2664441324
  0
LINE
  5
2CB
100
AcDbEntity
  8
SLD-0
100
AcDbLine
 62
7
  6
CONTINUOUS
 10
209.435620604
 20
65.9510187128
 11
210.3542815208
 21
65.9510187128
  0
LINE
  5
2CC
100
AcDbEntity
  8
SLD-0
100
AcDbLine
 62
7
  6
CONTINUOUS
 10
212.8941735687
 20
65.9510187128
 11
213.8128345219
 21
65.9510187128
  0
LINE
  5
2CD
100
AcDbEntity
  8
SLD-0
100
AcDbLine
 62
7
  6
CONTINUOUS
 10
207.9401972556
 20
66.2564925173
 11
209.435620604
 21
66.2564925173
  0
LINE
  5
2CE
100
AcDbEntity
  8
SLD-0
100
AcDbLine
 62
7
  6
CONTINUOUS
 10
213.8128345219
 20
66.2564925173
 11
215.3082577248
 21
66.2564925173
  0
LINE
  5
2CF
100
AcDbEntity
  8
SLD-0
100
AcDbLine
 62
7
  6
CONTINUOUS
 10
212.3981553855
 20
69.1994718531
 11
210.7424266838
 21
69.1994718531
  0
LINE
  5
2D0
100
AcDbEntity
  8
SLD-0
100
AcDbLine
 62
7
  6
CONTINUOUS
 10
205.4477164025
 20
70.2133468607
 11
206.3175044573
 21
70.2133468607
  0
LINE
  5
2D1
100
AcDbEntity
  8
SLD-0
100
AcDbLine
 62
7
  6
CONTINUOUS
 10
208.3879975222
 20
70.2133468607
 11
210.2059973955
 21
70.2133468607
  0
LINE
  5
2D2
100
AcDbEntity
  8
SLD-0
100
AcDbLine
 62
7
  6
CONTINUOUS
 10
182.0746779677
 20
70.2793437696
 11
181.9951057669
 21
70.2793437696
  0
LINE
  5
2D3
100
AcDbEntity
  8
SLD-0
100
AcDbLine
 62
7
  6
CONTINUOUS
 10
181.5103709933
 20
70.2793437696
 11
178.2640040156
 21
70.2793437696
  0
LINE
  5
2D4
100
AcDbEntity
  8
SLD-0
100
AcDbLine
 62
7
  6
CONTINUOUS
 10
164.5167887446
 20
71.0911590315
 11
178.1297445533
 21
71.0911590315
  0
LINE
  5
2D5
100
AcDbEntity
  8
SLD-0
100
AcDbLine
 62
7
  6
CONTINUOUS
 10
182.0746779677
 20
71.0911590315
 11
182.1938872573
 21
71.0911590315
  0
LINE
  5
2D6
100
AcDbEntity
  8
SLD-0
100
AcDbLine
 62
7
  6
CONTINUOUS
 10
181.4389944312
 20
71.1890596605
 11
181.5103709933
 21
71.1890596605
  0
LINE
  5
2D7
100
AcDbEntity
  8
SLD-0
100
AcDbLine
 62
7
  6
CONTINUOUS
 10
181.9951057669
 20
71.1890596605
 11
182.1938872573
 21
71.1890596605
  0
LINE
  5
2D8
100
AcDbEntity
  8
SLD-0
100
AcDbLine
 62
7
  6
CONTINUOUS
 10
183.1268489596
 20
71.1890596605
 11
185.2331280944
 21
71.1890596605
  0
LINE
  5
2D9
100
AcDbEntity
  8
SLD-0
100
AcDbLine
 62
7
  6
CONTINUOUS
 10
186.1659407851
 20
71.1890596605
 11
186.3182306525
 21
71.1890596605
  0
LINE
  5
2DA
100
AcDbEntity
  8
SLD-0
100
AcDbLine
 62
7
  6
CONTINUOUS
 10
186.8029654261
 20
71.1890596605
 11
186.8928194281
 21
71.1890596605
  0
LINE
  5
2DB
100
AcDbEntity
  8
SLD-0
100
AcDbLine
 62
7
  6
CONTINUOUS
 10
203.8633143498
 20
71.2693921545
 11
205.3150826801
 21
71.2693921545
  0
LINE
  5
2DC
100
AcDbEntity
  8
SLD-0
100
AcDbLine
 62
7
  6
CONTINUOUS
 10
199.4096733366
 20
71.400522373
 11
203.1269583354
 21
71.400522373
  0
LINE
  5
2DD
100
AcDbEntity
  8
SLD-0
100
AcDbLine
 62
7
  6
CONTINUOUS
 10
203.277130026
 20
71.400522373
 11
203.8633143498
 21
71.400522373
  0
LINE
  5
2DE
100
AcDbEntity
  8
SLD-0
100
AcDbLine
 62
7
  6
CONTINUOUS
 10
205.3150826801
 20
71.400522373
 11
207.3534413326
 21
71.400522373
  0
LINE
  5
2DF
100
AcDbEntity
  8
SLD-0
100
AcDbLine
 62
7
  6
CONTINUOUS
 10
186.1659407851
 20
71.4678603865
 11
185.2331280944
 21
71.4678603865
  0
LINE
  5
2E0
100
AcDbEntity
  8
SLD-0
100
AcDbLine
 62
7
  6
CONTINUOUS
 10
183.1268489596
 20
71.4678603865
 11
182.1938872573
 21
71.4678603865
  0
LINE
  5
2E1
100
AcDbEntity
  8
SLD-0
100
AcDbLine
 62
7
  6
CONTINUOUS
 10
205.3150826801
 20
71.8906215647
 11
202.8490778726
 21
71.8906215647
  0
LINE
  5
2E2
100
AcDbEntity
  8
SLD-0
100
AcDbLine
 62
7
  6
CONTINUOUS
 10
196.4932425149
 20
72.0812074164
 11
210.6350685377
 21
72.0812074164
  0
LINE
  5
2E3
100
AcDbEntity
  8
SLD-0
100
AcDbLine
 62
7
  6
CONTINUOUS
 10
180.6441664931
 20
72.1394557215
 11
181.4389944312
 21
72.1394557215
  0
LINE
  5
2E4
100
AcDbEntity
  8
SLD-0
100
AcDbLine
 62
7
  6
CONTINUOUS
 10
186.8928194281
 20
72.5602645136
 11
186.8029654261
 21
72.5602645136
  0
LINE
  5
2E5
100
AcDbEntity
  8
SLD-0
100
AcDbLine
 62
7
  6
CONTINUOUS
 10
186.3182306525
 20
72.5602645136
 11
186.1659407851
 21
72.5602645136
  0
LINE
  5
2E6
100
AcDbEntity
  8
SLD-0
100
AcDbLine
 62
7
  6
CONTINUOUS
 10
185.2331280944
 20
72.5602645136
 11
183.1268489596
 21
72.5602645136
  0
LINE
  5
2E7
100
AcDbEntity
  8
SLD-0
100
AcDbLine
 62
7
  6
CONTINUOUS
 10
182.1938872573
 20
72.5602645136
 11
181.9951057669
 21
72.5602645136
  0
LINE
  5
2E8
100
AcDbEntity
  8
SLD-0
100
AcDbLine
 62
7
  6
CONTINUOUS
 10
181.5103709933
 20
72.5602645136
 11
181.4389944312
 21
72.5602645136
  0
LINE
  5
2E9
100
AcDbEntity
  8
SLD-0
100
AcDbLine
 62
7
  6
CONTINUOUS
 10
183.1268489596
 20
72.5790399767
 11
185.2331280944
 21
72.5790399767
  0
LINE
  5
2EA
100
AcDbEntity
  8
SLD-0
100
AcDbLine
 62
7
  6
CONTINUOUS
 10
238.5421390706
 20
66.2112820477
 11
238.3291638213
 21
66.2122151901
  0
LINE
  5
2EB
100
AcDbEntity
  8
SLD-0
100
AcDbLine
 62
7
  6
CONTINUOUS
 10
239.8352518153
 20
67.6795684727
 11
239.622276566
 21
67.6805016151
  0
LINE
  5
2EC
100
AcDbEntity
  8
SLD-0
100
AcDbLine
 62
7
  6
CONTINUOUS
 10
236.7789672188
 20
64.2759947532
 11
236.5659963372
 21
64.2770736745
  0
LINE
  5
2ED
100
AcDbEntity
  8
SLD-0
100
AcDbLine
 62
7
  6
CONTINUOUS
 10
243.1445176254
 20
71.7810219515
 11
243.8803072574
 21
71.7751861487
  0
LINE
  5
2EE
100
AcDbEntity
  8
SLD-0
100
AcDbLine
 62
7
  6
CONTINUOUS
 10
238.4671024468
 20
54.1821383496
 11
238.3019918227
 21
54.2046074046
  0
LINE
  5
2EF
100
AcDbEntity
  8
SLD-0
100
AcDbLine
 62
7
  6
CONTINUOUS
 10
231.8856568236
 20
55.5119866185
 11
231.7205461996
 21
55.5344556735
  0
LINE
  5
2F0
100
AcDbEntity
  8
SLD-0
100
AcDbLine
 62
7
  6
CONTINUOUS
 10
238.4769688693
 20
56.3716044521
 11
238.6420794934
 21
56.3491353971
  0
LINE
  5
2F1
100
AcDbEntity
  8
SLD-0
100
AcDbLine
 62
7
  6
CONTINUOUS
 10
234.1204407542
 20
52.0066787209
 11
233.9554594877
 21
52.0291592192
  0
LINE
  5
2F2
100
AcDbEntity
  8
SLD-0
100
AcDbLine
 62
7
  6
CONTINUOUS
 10
236.6133887488
 20
52.2046742959
 11
236.4484074822
 21
52.2271547942
  0
LINE
  5
2F3
100
AcDbEntity
  8
SLD-0
100
AcDbLine
 62
7
  6
CONTINUOUS
 10
232.351470237
 20
53.4259557876
 11
232.1864889705
 21
53.4484362858
  0
LINE
  5
2F4
100
AcDbEntity
  8
SLD-0
100
AcDbLine
 62
7
  6
CONTINUOUS
 10
238.1077024489
 20
53.2489115732
 11
238.2726837154
 21
53.2264310749
  0
LINE
  5
2F5
100
AcDbEntity
  8
SLD-0
100
AcDbLine
 62
7
  6
CONTINUOUS
 10
231.5262524579
 20
54.5786140632
 11
231.6912337244
 21
54.5561335649
  0
LINE
  5
2F6
100
AcDbEntity
  8
SLD-0
100
AcDbLine
 62
7
  6
CONTINUOUS
 10
232.310919228
 20
57.0846602353
 11
232.4759004945
 21
57.0621797371
  0
LINE
  5
2F7
100
AcDbEntity
  8
SLD-0
100
AcDbLine
 62
7
  6
CONTINUOUS
 10
233.7611701138
 20
51.0734633877
 11
233.9261470125
 21
51.0508371105
  0
LINE
  5
2F8
100
AcDbEntity
  8
SLD-0
100
AcDbLine
 62
7
  6
CONTINUOUS
 10
236.2541181084
 20
51.2714589627
 11
236.4190950071
 21
51.2488326856
  0
LINE
  5
2F9
100
AcDbEntity
  8
SLD-0
100
AcDbLine
 62
7
  6
CONTINUOUS
 10
231.9921995966
 20
52.4927404544
 11
232.1571764953
 21
52.4701141772
  0
LINE
  5
2FA
100
AcDbEntity
  8
SLD-0
100
AcDbLine
 62
7
  6
CONTINUOUS
 10
232.6701898684
 20
58.0178755685
 11
232.5052129697
 21
58.0405018457
  0
LINE
  5
2FB
100
AcDbEntity
  8
SLD-0
100
AcDbLine
 62
7
  6
CONTINUOUS
 10
238.8363688673
 20
57.3048312285
 11
238.6713919686
 21
57.3274575057
  0
LINE
  5
2FC
100
AcDbEntity
  8
SLD-0
100
AcDbLine
 62
7
  6
CONTINUOUS
 10
235.0339386583
 20
47.9185041263
 11
235.2399135062
 21
47.8776957388
  0
LINE
  5
2FD
100
AcDbEntity
  8
SLD-0
100
AcDbLine
 62
7
  6
CONTINUOUS
 10
244.0510459996
 20
48.9954753612
 11
244.2570208475
 21
48.9546669738
  0
LINE
  5
2FE
100
AcDbEntity
  8
SLD-0
100
AcDbLine
 62
7
  6
CONTINUOUS
 10
231.903439882
 20
44.380419865
 11
232.1095397196
 21
44.3394771418
  0
LINE
  5
2FF
100
AcDbEntity
  8
SLD-0
100
AcDbLine
 62
7
  6
CONTINUOUS
 10
233.4993323625
 20
46.1925918628
 11
233.7053028426
 21
46.1516376965
  0
LINE
  5
300
100
AcDbEntity
  8
SLD-0
100
AcDbLine
 62
7
  6
CONTINUOUS
 10
231.2895334676
 20
41.3170692409
 11
230.433307763
 21
41.5338554272
  0
LINE
  5
301
100
AcDbEntity
  8
SLD-0
100
AcDbLine
 62
7
  6
CONTINUOUS
 10
108.394799098
 20
0.0
 11
108.394799098
 21
38.1
  0
LINE
  5
302
100
AcDbEntity
  8
SLD-0
100
AcDbLine
 62
7
  6
CONTINUOUS
 10
232.0483931946
 20
82.4600034018
 11
233.000723293
 21
82.5442485213
  0
LINE
  5
303
100
AcDbEntity
  8
SLD-0
100
AcDbLine
 62
7
  6
CONTINUOUS
 10
231.0959870629
 20
82.5261935594
 11
231.3517268896
 21
82.5488168413
  0
LINE
  5
304
100
AcDbEntity
  8
SLD-0
100
AcDbLine
 62
7
  6
CONTINUOUS
 10
233.0726994008
 20
82.7010576821
 11
233.3806996676
 21
82.7283040322
  0
LINE
  5
305
100
AcDbEntity
  8
SLD-0
100
AcDbLine
 62
7
  6
CONTINUOUS
 10
232.837124322
 20
82.9393732308
 11
232.5826780706
 21
82.9168643813
  0
LINE
  5
306
100
AcDbEntity
  8
SLD-0
100
AcDbLine
 62
7
  6
CONTINUOUS
 10
230.7545975287
 20
82.7551485393
 11
230.5524117173
 21
82.737262758
  0
LINE
  5
307
100
AcDbEntity
  8
SLD-0
100
AcDbLine
 62
7
  6
CONTINUOUS
 10
231.5481647029
 20
83.0375357017
 11
230.7442076856
 21
82.9664159764
  0
LINE
  5
308
100
AcDbEntity
  8
SLD-0
100
AcDbLine
 62
7
  6
CONTINUOUS
 10
231.5362918532
 20
82.977869681
 11
231.336248226
 21
82.9650726541
  0
LINE
  5
309
100
AcDbEntity
  8
SLD-0
100
AcDbLine
 62
7
  6
CONTINUOUS
 10
231.9730757716
 20
82.6687641777
 11
232.1187085773
 21
82.6745661551
  0
LINE
  5
30A
100
AcDbEntity
  8
SLD-0
100
AcDbLine
 62
7
  6
CONTINUOUS
 10
211.2072337373
 20
75.0730625609
 11
211.3389264601
 21
75.0751487234
  0
LINE
  5
30B
100
AcDbEntity
  8
SLD-0
100
AcDbLine
 62
7
  6
CONTINUOUS
 10
205.8735787837
 20
74.9906591395
 11
201.4927281967
 21
74.9212197283
  0
LINE
  5
30C
100
AcDbEntity
  8
SLD-0
100
AcDbLine
 62
7
  6
CONTINUOUS
 10
211.2034213174
 20
75.0751487234
 11
208.4442558085
 21
75.0314883211
  0
LINE
  5
30D
100
AcDbEntity
  8
SLD-0
100
AcDbLine
 62
7
  6
CONTINUOUS
 10
241.6297109235
 20
74.6818754361
 11
240.9138477313
 21
74.6710930027
  0
LINE
  5
30E
100
AcDbEntity
  8
SLD-0
100
AcDbLine
 62
7
  6
CONTINUOUS
 10
241.7351582484
 20
74.7046381488
 11
241.0110996933
 21
74.6946944031
  0
LINE
  5
30F
100
AcDbEntity
  8
SLD-0
100
AcDbLine
 62
7
  6
CONTINUOUS
 10
182.1938872573
 20
73.591126845
 11
181.9951057669
 21
73.591126845
  0
LINE
  5
310
100
AcDbEntity
  8
SLD-0
100
AcDbLine
 62
7
  6
CONTINUOUS
 10
164.5167887446
 20
73.591126845
 11
181.5103709933
 21
73.591126845
  0
LINE
  5
311
100
AcDbEntity
  8
SLD-0
100
AcDbLine
 62
7
  6
CONTINUOUS
 10
183.1268489596
 20
74.0307111002
 11
185.2331280944
 21
74.0307111002
  0
LINE
  5
312
100
AcDbEntity
  8
SLD-0
100
AcDbLine
 62
7
  6
CONTINUOUS
 10
186.1659407851
 20
74.0851003385
 11
185.2331280944
 21
74.0851003385
  0
LINE
  5
313
100
AcDbEntity
  8
SLD-0
100
AcDbLine
 62
7
  6
CONTINUOUS
 10
183.1268489596
 20
74.0851003385
 11
182.1938872573
 21
74.0851003385
  0
LINE
  5
314
100
AcDbEntity
  8
SLD-0
100
AcDbLine
 62
7
  6
CONTINUOUS
 10
196.4932425149
 20
74.5811752299
 11
210.6350685377
 21
74.5811752299
  0
LINE
  5
315
100
AcDbEntity
  8
SLD-0
100
AcDbLine
 62
7
  6
CONTINUOUS
 10
205.2002354727
 20
75.0207594851
 11
201.520607338
 21
75.0207594851
  0
LINE
  5
316
100
AcDbEntity
  8
SLD-0
100
AcDbLine
 62
7
  6
CONTINUOUS
 10
186.8029654261
 20
77.0239073492
 11
186.3182306525
 21
77.0239073492
  0
LINE
  5
317
100
AcDbEntity
  8
SLD-0
100
AcDbLine
 62
7
  6
CONTINUOUS
 10
181.9951057669
 20
77.0239073492
 11
181.5103709933
 21
77.0239073492
  0
LINE
  5
318
100
AcDbEntity
  8
SLD-0
100
AcDbLine
 62
7
  6
CONTINUOUS
 10
181.9951057669
 20
78.584505961
 11
186.3134622809
 21
78.584505961
  0
LINE
  5
319
100
AcDbEntity
  8
SLD-0
100
AcDbLine
 62
7
  6
CONTINUOUS
 10
201.6666218374
 20
79.5745543459
 11
201.6431548369
 21
79.5745543459
  0
LINE
  5
31A
100
AcDbEntity
  8
SLD-0
100
AcDbLine
 62
7
  6
CONTINUOUS
 10
181.9951057669
 20
79.6891290403
 11
186.3134622809
 21
79.6891290403
  0
LINE
  5
31B
100
AcDbEntity
  8
SLD-0
100
AcDbLine
 62
7
  6
CONTINUOUS
 10
186.8029654261
 20
79.7989505983
 11
186.3182306525
 21
79.7989505983
  0
LINE
  5
31C
100
AcDbEntity
  8
SLD-0
100
AcDbLine
 62
7
  6
CONTINUOUS
 10
181.9951057669
 20
79.7989505983
 11
181.5103709933
 21
79.7989505983
  0
LINE
  5
31D
100
AcDbEntity
  8
SLD-0
100
AcDbLine
 62
7
  6
CONTINUOUS
 10
201.6431548369
 20
80.6791774252
 11
201.6666218374
 21
80.6791774252
  0
LINE
  5
31E
100
AcDbEntity
  8
SLD-0
100
AcDbLine
 62
7
  6
CONTINUOUS
 10
201.6666218374
 20
80.7889989832
 11
207.0261792365
 21
80.7889989832
  0
LINE
  5
31F
100
AcDbEntity
  8
SLD-0
100
AcDbLine
 62
7
  6
CONTINUOUS
 10
231.7745999182
 20
78.1101584582
 11
232.0753018658
 21
78.1093408075
  0
LINE
  5
320
100
AcDbEntity
  8
SLD-0
100
AcDbLine
 62
7
  6
CONTINUOUS
 10
242.3575857824
 20
74.676707696
 11
241.6297109235
 21
74.6818754361
  0
LINE
  5
321
100
AcDbEntity
  8
SLD-0
100
AcDbLine
 62
7
  6
CONTINUOUS
 10
242.4709509018
 20
74.6985544827
 11
241.7351582484
 21
74.7046381488
  0
LINE
  5
322
100
AcDbEntity
  8
SLD-0
100
AcDbLine
 62
7
  6
CONTINUOUS
 10
242.9889932154
 20
71.8036065195
 11
243.7179562098
 21
71.7963511011
  0
LINE
  5
323
100
AcDbEntity
  8
SLD-0
100
AcDbLine
 62
7
  6
CONTINUOUS
 10
243.0895211302
 20
74.655655256
 11
242.3575857824
 21
74.676707696
  0
LINE
  5
324
100
AcDbEntity
  8
SLD-0
100
AcDbLine
 62
7
  6
CONTINUOUS
 10
242.4050689142
 20
71.8028332777
 11
243.1445176254
 21
71.7810219515
  0
LINE
  5
325
100
AcDbEntity
  8
SLD-0
100
AcDbLine
 62
7
  6
CONTINUOUS
 10
243.2103757205
 20
74.676505744
 11
242.4709509018
 21
74.6985544827
  0
LINE
  5
326
100
AcDbEntity
  8
SLD-0
100
AcDbLine
 62
7
  6
CONTINUOUS
 10
242.2571157121
 20
71.8267333637
 11
242.9889932154
 21
71.8036065195
  0
LINE
  5
327
100
AcDbEntity
  8
SLD-0
100
AcDbLine
 62
7
  6
CONTINUOUS
 10
227.6967223722
 20
70.4345006094
 11
227.5793110464
 21
70.4392406393
  0
LINE
  5
328
100
AcDbEntity
  8
SLD-0
100
AcDbLine
 62
7
  6
CONTINUOUS
 10
227.5020924484
 20
71.7854379847
 11
227.6195037742
 21
71.7806979547
  0
LINE
  5
329
100
AcDbEntity
  8
SLD-0
100
AcDbLine
 62
7
  6
CONTINUOUS
 10
231.4537915407
 20
72.8091346614
 11
231.5283066717
 21
72.805918021
  0
LINE
  5
32A
100
AcDbEntity
  8
SLD-0
100
AcDbLine
 62
7
  6
CONTINUOUS
 10
243.817448195
 20
74.6189525962
 11
243.0895211302
 21
74.655655256
  0
LINE
  5
32B
100
AcDbEntity
  8
SLD-0
100
AcDbLine
 62
7
  6
CONTINUOUS
 10
241.6700426225
 20
71.8403807052
 11
242.4050689142
 21
71.8028332777
  0
LINE
  5
32C
100
AcDbEntity
  8
SLD-0
100
AcDbLine
 62
7
  6
CONTINUOUS
 10
243.9453450585
 20
74.6387337414
 11
243.2103757205
 21
74.676505744
  0
LINE
  5
32D
100
AcDbEntity
  8
SLD-0
100
AcDbLine
 62
7
  6
CONTINUOUS
 10
241.5304403872
 20
71.8654785479
 11
242.2571157121
 21
71.8267333637
  0
LINE
  5
32E
100
AcDbEntity
  8
SLD-0
100
AcDbLine
 62
7
  6
CONTINUOUS
 10
237.0056810223
 20
71.8709800502
 11
237.2814255955
 21
71.8550992716
  0
LINE
  5
32F
100
AcDbEntity
  8
SLD-0
100
AcDbLine
 62
7
  6
CONTINUOUS
 10
236.1894204105
 20
69.3469401495
 11
235.873646567
 21
69.3659679099
  0
LINE
  5
330
100
AcDbEntity
  8
SLD-0
100
AcDbLine
 62
7
  6
CONTINUOUS
 10
240.9473570098
 20
71.8932415077
 11
241.6700426225
 21
71.8403807052
  0
LINE
  5
331
100
AcDbEntity
  8
SLD-0
100
AcDbLine
 62
7
  6
CONTINUOUS
 10
240.816917804
 20
71.9194068024
 11
241.5304403872
 21
71.8654785479
  0
LINE
  5
332
100
AcDbEntity
  8
SLD-0
100
AcDbLine
 62
7
  6
CONTINUOUS
 10
237.2354528548
 20
58.3176272853
 11
237.4004341214
 21
58.2951467871
  0
LINE
  5
333
100
AcDbEntity
  8
SLD-0
100
AcDbLine
 62
7
  6
CONTINUOUS
 10
237.5947234953
 20
59.2508426185
 11
237.4297422287
 21
59.2733231168
  0
LINE
  5
334
100
AcDbEntity
  8
SLD-0
100
AcDbLine
 62
7
  6
CONTINUOUS
 10
235.1078283266
 20
59.7457415728
 11
234.9428470601
 21
59.7682220711
  0
LINE
  5
335
100
AcDbEntity
  8
SLD-0
100
AcDbLine
 62
7
  6
CONTINUOUS
 10
234.7485576862
 20
58.8125262396
 11
234.9135345849
 21
58.7898999624
  0
LINE
  5
336
100
AcDbEntity
  8
SLD-0
100
AcDbLine
 62
7
  6
CONTINUOUS
 10
236.0167836494
 20
58.2531482143
 11
235.6090332162
 21
58.3112920948
  0
LINE
  5
337
100
AcDbEntity
  8
SLD-0
100
AcDbLine
 62
7
  6
CONTINUOUS
 10
229.0162699098
 20
53.8680569393
 11
229.2222447577
 21
53.8272485518
  0
LINE
  5
338
100
AcDbEntity
  8
SLD-0
100
AcDbLine
 62
7
  6
CONTINUOUS
 10
241.9180556771
 20
53.064896699
 11
242.1240305251
 21
53.0240883115
  0
LINE
  5
339
100
AcDbEntity
  8
SLD-0
100
AcDbLine
 62
7
  6
CONTINUOUS
 10
225.5885877422
 20
59.5727458528
 11
225.7945625902
 21
59.5319374653
  0
LINE
  5
33A
100
AcDbEntity
  8
SLD-0
100
AcDbLine
 62
7
  6
CONTINUOUS
 10
240.9944229918
 20
54.8039404867
 11
241.2005228294
 21
54.7629977636
  0
LINE
  5
33B
100
AcDbEntity
  8
SLD-0
100
AcDbLine
 62
7
  6
CONTINUOUS
 10
243.1501715732
 20
50.6242893826
 11
243.3561420533
 21
50.5833352162
  0
LINE
  5
33C
100
AcDbEntity
  8
SLD-0
100
AcDbLine
 62
7
  6
CONTINUOUS
 10
227.7757009793
 20
55.9447260183
 11
227.9816714594
 21
55.9037718519
  0
LINE
  5
33D
100
AcDbEntity
  8
SLD-0
100
AcDbLine
 62
7
  6
CONTINUOUS
 10
226.4676365625
 20
58.1584905246
 11
226.6736070426
 21
58.1175363582
  0
LINE
  5
33E
100
AcDbEntity
  8
SLD-0
100
AcDbLine
 62
7
  6
CONTINUOUS
 10
234.2020838355
 20
52.5441474857
 11
234.6007090424
 21
52.448412066
  0
LINE
  5
33F
100
AcDbEntity
  8
SLD-0
100
AcDbLine
 62
7
  6
CONTINUOUS
 10
230.433307763
 20
41.5338554272
 11
229.600406352
 21
41.8229295069
  0
LINE
  5
340
100
AcDbEntity
  8
SLD-0
100
AcDbLine
 62
7
  6
CONTINUOUS
 10
228.8444852344
 20
42.1160987921
 11
229.664926545
 21
41.7975231037
  0
LINE
  5
341
100
AcDbEntity
  8
SLD-0
100
AcDbLine
 62
7
  6
CONTINUOUS
 10
121.646741098
 20
38.1
 11
121.646741098
 21
5.7771926787
  0
LINE
  5
342
100
AcDbEntity
  8
SLD-0
100
AcDbLine
 62
7
  6
CONTINUOUS
 10
235.1525195389
 20
103.5375001013
 11
235.2035744362
 21
103.5461336316
  0
LINE
  5
343
100
AcDbEntity
  8
SLD-0
100
AcDbLine
 62
7
  6
CONTINUOUS
 10
234.612275781
 20
103.5302763215
 11
234.5435077094
 21
103.5187255054
  0
LINE
  5
344
100
AcDbEntity
  8
SLD-0
100
AcDbLine
 62
7
  6
CONTINUOUS
 10
235.2326209953
 20
103.5385681565
 11
235.3015184245
 21
103.5501304159
  0
LINE
  5
345
100
AcDbEntity
  8
SLD-0
100
AcDbLine
 62
7
  6
CONTINUOUS
 10
234.6923772374
 20
103.5313443768
 11
234.6413272847
 21
103.5228564013
  0
LINE
  5
346
100
AcDbEntity
  8
SLD-0
100
AcDbLine
 62
7
  6
CONTINUOUS
 10
183.6138189074
 20
82.2436351038
 11
184.7108650757
 21
82.2436351038
  0
LINE
  5
347
100
AcDbEntity
  8
SLD-0
100
AcDbLine
 62
7
  6
CONTINUOUS
 10
203.5235893562
 20
83.237408779
 11
204.6205764874
 21
83.237408779
  0
LINE
  5
348
100
AcDbEntity
  8
SLD-0
100
AcDbLine
 62
7
  6
CONTINUOUS
 10
183.6138189074
 20
84.1760176874
 11
184.7108650757
 21
84.1760176874
  0
LINE
  5
349
100
AcDbEntity
  8
SLD-0
100
AcDbLine
 62
7
  6
CONTINUOUS
 10
182.8215241668
 20
84.1797429777
 11
185.4533672568
 21
84.1797429777
  0
LINE
  5
34A
100
AcDbEntity
  8
SLD-0
100
AcDbLine
 62
7
  6
CONTINUOUS
 10
202.9021638414
 20
85.1660660723
 11
203.1082928848
 21
85.1660660723
  0
LINE
  5
34B
100
AcDbEntity
  8
SLD-0
100
AcDbLine
 62
7
  6
CONTINUOUS
 10
205.1509306735
 20
85.1660660723
 11
205.5341344063
 21
85.1660660723
  0
LINE
  5
34C
100
AcDbEntity
  8
SLD-0
100
AcDbLine
 62
7
  6
CONTINUOUS
 10
202.9678534599
 20
85.1697913626
 11
205.2913703029
 21
85.1697913626
  0
LINE
  5
34D
100
AcDbEntity
  8
SLD-0
100
AcDbLine
 62
7
  6
CONTINUOUS
 10
231.819920898
 20
82.6753805692
 11
231.9730757716
 21
82.6687641777
  0
LINE
  5
34E
100
AcDbEntity
  8
SLD-0
100
AcDbLine
 62
7
  6
CONTINUOUS
 10
231.4742028315
 20
78.1272009448
 11
231.7745999182
 21
78.1101584582
  0
LINE
  5
34F
100
AcDbEntity
  8
SLD-0
100
AcDbLine
 62
7
  6
CONTINUOUS
 10
244.5332019361
 20
74.5669949228
 11
243.817448195
 21
74.6189525962
  0
LINE
  5
350
100
AcDbEntity
  8
SLD-0
100
AcDbLine
 62
7
  6
CONTINUOUS
 10
244.6678073691
 20
74.5856512842
 11
243.9453450585
 21
74.6387337414
  0
LINE
  5
351
100
AcDbEntity
  8
SLD-0
100
AcDbLine
 62
7
  6
CONTINUOUS
 10
245.2288064751
 20
74.5003506804
 11
244.5332019361
 21
74.5669949228
  0
LINE
  5
352
100
AcDbEntity
  8
SLD-0
100
AcDbLine
 62
7
  6
CONTINUOUS
 10
240.2449969678
 20
71.9608437406
 11
240.9473570098
 21
71.8932415077
  0
LINE
  5
353
100
AcDbEntity
  8
SLD-0
100
AcDbLine
 62
7
  6
CONTINUOUS
 10
245.3699024309
 20
74.51784358
 11
244.6678073691
 21
74.5856512842
  0
LINE
  5
354
100
AcDbEntity
  8
SLD-0
100
AcDbLine
 62
7
  6
CONTINUOUS
 10
240.1244369546
 20
71.9879217475
 11
240.816917804
 21
71.9194068024
  0
LINE
  5
355
100
AcDbEntity
  8
SLD-0
100
AcDbLine
 62
7
  6
CONTINUOUS
 10
231.1947033891
 20
78.1593177793
 11
231.4742028315
 21
78.1272009448
  0
LINE
  5
356
100
AcDbEntity
  8
SLD-0
100
AcDbLine
 62
7
  6
CONTINUOUS
 10
245.8968918309
 20
74.4197847527
 11
245.2288064751
 21
74.5003506804
  0
LINE
  5
357
100
AcDbEntity
  8
SLD-0
100
AcDbLine
 62
7
  6
CONTINUOUS
 10
239.5705965286
 20
72.0424433347
 11
240.2449969678
 21
71.9608437406
  0
LINE
  5
358
100
AcDbEntity
  8
SLD-0
100
AcDbLine
 62
7
  6
CONTINUOUS
 10
246.043732089
 20
74.4360339115
 11
245.3699024309
 21
74.51784358
  0
LINE
  5
359
100
AcDbEntity
  8
SLD-0
100
AcDbLine
 62
7
  6
CONTINUOUS
 10
239.4605330868
 20
72.0702559995
 11
240.1244369546
 21
71.9879217475
  0
LINE
  5
35A
100
AcDbEntity
  8
SLD-0
100
AcDbLine
 62
7
  6
CONTINUOUS
 10
231.3869113147
 20
72.8178974889
 11
231.4537915407
 21
72.8091346614
  0
LINE
  5
35B
100
AcDbEntity
  8
SLD-0
100
AcDbLine
 62
7
  6
CONTINUOUS
 10
238.9315393792
 20
72.1371467396
 11
239.5705965286
 21
72.0424433347
  0
LINE
  5
35C
100
AcDbEntity
  8
SLD-0
100
AcDbLine
 62
7
  6
CONTINUOUS
 10
238.8328751382
 20
72.1655285906
 11
239.4605330868
 21
72.0702559995
  0
LINE
  5
35D
100
AcDbEntity
  8
SLD-0
100
AcDbLine
 62
7
  6
CONTINUOUS
 10
237.9149336158
 20
68.7324224207
 11
237.6379744026
 21
68.7852708372
  0
LINE
  5
35E
100
AcDbEntity
  8
SLD-0
100
AcDbLine
 62
7
  6
CONTINUOUS
 10
236.3162034665
 20
62.8554282706
 11
236.5221783145
 21
62.8146198831
  0
LINE
  5
35F
100
AcDbEntity
  8
SLD-0
100
AcDbLine
 62
7
  6
CONTINUOUS
 10
239.3724880631
 20
66.2590019901
 11
239.578462911
 21
66.2181936026
  0
LINE
  5
360
100
AcDbEntity
  8
SLD-0
100
AcDbLine
 62
7
  6
CONTINUOUS
 10
234.9419843229
 20
61.2249785986
 11
235.147954803
 21
61.1840244322
  0
LINE
  5
361
100
AcDbEntity
  8
SLD-0
100
AcDbLine
 62
7
  6
CONTINUOUS
 10
238.0793753184
 20
64.7907155651
 11
238.2853457985
 21
64.7497613987
  0
LINE
  5
362
100
AcDbEntity
  8
SLD-0
100
AcDbLine
 62
7
  6
CONTINUOUS
 10
231.0316590239
 20
44.0522074533
 11
230.8381989049
 21
44.1317795774
  0
LINE
  5
363
100
AcDbEntity
  8
SLD-0
100
AcDbLine
 62
7
  6
CONTINUOUS
 10
232.5596593854
 20
45.7212684446
 11
232.3663329918
 21
45.8009977908
  0
LINE
  5
364
100
AcDbEntity
  8
SLD-0
100
AcDbLine
 62
7
  6
CONTINUOUS
 10
234.1555474981
 20
47.5332946636
 11
233.9622211044
 21
47.6130240098
  0
LINE
  5
365
100
AcDbEntity
  8
SLD-0
100
AcDbLine
 62
7
  6
CONTINUOUS
 10
229.600406352
 20
41.8229295069
 11
228.7954249561
 21
42.182662532
  0
LINE
  5
366
100
AcDbEntity
  8
SLD-0
100
AcDbLine
 62
7
  6
CONTINUOUS
 10
184.3418896434
 20
106.3213783956
 11
184.4052195784
 21
106.337769673
  0
LINE
  5
367
100
AcDbEntity
  8
SLD-0
100
AcDbLine
 62
7
  6
CONTINUOUS
 10
183.9288294551
 20
106.3927549578
 11
183.86549952
 21
106.3763636804
  0
LINE
  5
368
100
AcDbEntity
  8
SLD-0
100
AcDbLine
 62
7
  6
CONTINUOUS
 10
183.8568568465
 20
106.4051229216
 11
183.7716222045
 21
106.383069203
  0
LINE
  5
369
100
AcDbEntity
  8
SLD-0
100
AcDbLine
 62
7
  6
CONTINUOUS
 10
184.4137132403
 20
106.3088614202
 11
184.499096894
 21
106.3309151388
  0
LINE
  5
36A
100
AcDbEntity
  8
SLD-0
100
AcDbLine
 62
7
  6
CONTINUOUS
 10
184.2471182582
 20
106.3103515364
 11
184.3418896434
 21
106.3213783956
  0
LINE
  5
36B
100
AcDbEntity
  8
SLD-0
100
AcDbLine
 62
7
  6
CONTINUOUS
 10
184.2860102889
 20
106.2941092707
 11
184.4137132403
 21
106.3088614202
  0
LINE
  5
36C
100
AcDbEntity
  8
SLD-0
100
AcDbLine
 62
7
  6
CONTINUOUS
 10
183.9847088095
 20
106.4198750711
 11
183.8568568465
 21
106.4051229216
  0
LINE
  5
36D
100
AcDbEntity
  8
SLD-0
100
AcDbLine
 62
7
  6
CONTINUOUS
 10
235.1166219389
 20
103.5264210764
 11
235.2326209953
 21
103.5385681565
  0
LINE
  5
36E
100
AcDbEntity
  8
SLD-0
100
AcDbLine
 62
7
  6
CONTINUOUS
 10
234.7282748374
 20
103.5424234017
 11
234.612275781
 21
103.5302763215
  0
LINE
  5
36F
100
AcDbEntity
  8
SLD-0
100
AcDbLine
 62
7
  6
CONTINUOUS
 10
235.06646507
 20
103.5284948476
 11
235.1525195389
 21
103.5375001013
  0
LINE
  5
370
100
AcDbEntity
  8
SLD-0
100
AcDbLine
 62
7
  6
CONTINUOUS
 10
234.7784322832
 20
103.5403494064
 11
234.6923772374
 21
103.5313443768
  0
LINE
  5
371
100
AcDbEntity
  8
SLD-0
100
AcDbLine
 62
7
  6
CONTINUOUS
 10
234.97106008
 20
103.5154299289
 11
235.1166219389
 21
103.5264210764
  0
LINE
  5
372
100
AcDbEntity
  8
SLD-0
100
AcDbLine
 62
7
  6
CONTINUOUS
 10
234.9584832516
 20
103.520335244
 11
235.06646507
 21
103.5284948476
  0
LINE
  5
373
100
AcDbEntity
  8
SLD-0
100
AcDbLine
 62
7
  6
CONTINUOUS
 10
234.8864135247
 20
103.548509234
 11
234.7784322832
 21
103.5403494064
  0
LINE
  5
374
100
AcDbEntity
  8
SLD-0
100
AcDbLine
 62
7
  6
CONTINUOUS
 10
234.8738366963
 20
103.5534145492
 11
234.7282748374
 21
103.5424234017
  0
LINE
  5
375
100
AcDbEntity
  8
SLD-0
100
AcDbLine
 62
7
  6
CONTINUOUS
 10
234.9999063438
 20
103.5545770576
 11
234.8864135247
 21
103.548509234
  0
LINE
  5
376
100
AcDbEntity
  8
SLD-0
100
AcDbLine
 62
7
  6
CONTINUOUS
 10
234.8181093539
 20
103.5073670348
 11
234.97106008
 21
103.5154299289
  0
LINE
  5
377
100
AcDbEntity
  8
SLD-0
100
AcDbLine
 62
7
  6
CONTINUOUS
 10
235.0269167799
 20
103.5614888865
 11
234.8738366963
 21
103.5534145492
  0
LINE
  5
378
100
AcDbEntity
  8
SLD-0
100
AcDbLine
 62
7
  6
CONTINUOUS
 10
234.8449953772
 20
103.5144129754
 11
234.9584832516
 21
103.520335244
  0
LINE
  5
379
100
AcDbEntity
  8
SLD-0
100
AcDbLine
 62
7
  6
CONTINUOUS
 10
231.6824990291
 20
82.6934028575
 11
231.819920898
 21
82.6753805692
  0
LINE
  5
37A
100
AcDbEntity
  8
SLD-0
100
AcDbLine
 62
7
  6
CONTINUOUS
 10
232.5826780706
 20
82.9168643813
 11
232.3400171758
 21
82.9508350782
  0
LINE
  5
37B
100
AcDbEntity
  8
SLD-0
100
AcDbLine
 62
7
  6
CONTINUOUS
 10
246.5298222355
 20
74.3261652278
 11
245.8968918309
 21
74.4197847527
  0
LINE
  5
37C
100
AcDbEntity
  8
SLD-0
100
AcDbLine
 62
7
  6
CONTINUOUS
 10
246.6822983493
 20
74.3411510829
 11
246.043732089
 21
74.4360339115
  0
LINE
  5
37D
100
AcDbEntity
  8
SLD-0
100
AcDbLine
 62
7
  6
CONTINUOUS
 10
247.1206363919
 20
74.2205300056
 11
246.5298222355
 21
74.3261652278
  0
LINE
  5
37E
100
AcDbEntity
  8
SLD-0
100
AcDbLine
 62
7
  6
CONTINUOUS
 10
238.3347894122
 20
72.2439150475
 11
238.9315393792
 21
72.1371467396
  0
LINE
  5
37F
100
AcDbEntity
  8
SLD-0
100
AcDbLine
 62
7
  6
CONTINUOUS
 10
247.2782452086
 20
74.2342012401
 11
246.6822983493
 21
74.3411510829
  0
LINE
  5
380
100
AcDbEntity
  8
SLD-0
100
AcDbLine
 62
7
  6
CONTINUOUS
 10
238.2480631568
 20
72.2726568756
 11
238.8328751382
 21
72.1655285906
  0
LINE
  5
381
100
AcDbEntity
  8
SLD-0
100
AcDbLine
 62
7
  6
CONTINUOUS
 10
230.9550932368
 20
78.2043150344
 11
231.1947033891
 21
78.1593177793
  0
LINE
  5
382
100
AcDbEntity
  8
SLD-0
100
AcDbLine
 62
7
  6
CONTINUOUS
 10
238.2826127348
 20
71.4275209345
 11
238.559571948
 21
71.374672518
  0
LINE
  5
383
100
AcDbEntity
  8
SLD-0
100
AcDbLine
 62
7
  6
CONTINUOUS
 10
237.7871151182
 20
72.3616002073
 11
238.3347894122
 21
72.2439150475
  0
LINE
  5
384
100
AcDbEntity
  8
SLD-0
100
AcDbLine
 62
7
  6
CONTINUOUS
 10
247.6628276974
 20
74.1040487916
 11
247.1206363919
 21
74.2205300056
  0
LINE
  5
385
100
AcDbEntity
  8
SLD-0
100
AcDbLine
 62
7
  6
CONTINUOUS
 10
247.8251906625
 20
74.1163673799
 11
247.2782452086
 21
74.2342012401
  0
LINE
  5
386
100
AcDbEntity
  8
SLD-0
100
AcDbLine
 62
7
  6
CONTINUOUS
 10
237.7127556005
 20
72.3904738564
 11
238.2480631568
 21
72.2726568756
  0
LINE
  5
387
100
AcDbEntity
  8
SLD-0
100
AcDbLine
 62
7
  6
CONTINUOUS
 10
238.4130456692
 20
68.8266684667
 11
239.2101704295
 21
68.6223919718
  0
LINE
  5
388
100
AcDbEntity
  8
SLD-0
100
AcDbLine
 62
7
  6
CONTINUOUS
 10
231.3380446914
 20
72.8308900665
 11
231.3869113147
 21
72.8178974889
  0
LINE
  5
389
100
AcDbEntity
  8
SLD-0
100
AcDbLine
 62
7
  6
CONTINUOUS
 10
210.2059973955
 20
70.2133468607
 11
214.6968892744
 21
68.7174192885
  0
LINE
  5
38A
100
AcDbEntity
  8
SLD-0
100
AcDbLine
 62
7
  6
CONTINUOUS
 10
236.4037183187
 20
58.1203212851
 11
236.0167836494
 21
58.2531482143
  0
LINE
  5
38B
100
AcDbEntity
  8
SLD-0
100
AcDbLine
 62
7
  6
CONTINUOUS
 10
223.1149630414
 20
62.9708298633
 11
223.8559702917
 21
62.6830982586
  0
LINE
  5
38C
100
AcDbEntity
  8
SLD-0
100
AcDbLine
 62
7
  6
CONTINUOUS
 10
226.0249531207
 20
61.8408866476
 11
226.7659604431
 21
61.5531550148
  0
LINE
  5
38D
100
AcDbEntity
  8
SLD-0
100
AcDbLine
 62
7
  6
CONTINUOUS
 10
227.5802738072
 20
61.6843388978
 11
227.0947222424
 21
61.8728775806
  0
LINE
  5
38E
100
AcDbEntity
  8
SLD-0
100
AcDbLine
 62
7
  6
CONTINUOUS
 10
224.3104396508
 20
63.1206592737
 11
224.4734036033
 21
63.0573807032
  0
LINE
  5
38F
100
AcDbEntity
  8
SLD-0
100
AcDbLine
 62
7
  6
CONTINUOUS
 10
226.0242106049
 20
62.4552055058
 11
226.0431762168
 21
62.4478411973
  0
LINE
  5
390
100
AcDbEntity
  8
SLD-0
100
AcDbLine
 62
7
  6
CONTINUOUS
 10
228.4319204827
 20
57.2855745979
 11
228.2385897212
 21
57.3651581653
  0
LINE
  5
391
100
AcDbEntity
  8
SLD-0
100
AcDbLine
 62
7
  6
CONTINUOUS
 10
243.8063910766
 20
51.9651379622
 11
243.6130603152
 21
52.0447215295
  0
LINE
  5
392
100
AcDbEntity
  8
SLD-0
100
AcDbLine
 62
7
  6
CONTINUOUS
 10
235.6901581617
 20
49.259352706
 11
235.4967024106
 21
49.339070609
  0
LINE
  5
393
100
AcDbEntity
  8
SLD-0
100
AcDbLine
 62
7
  6
CONTINUOUS
 10
226.2448072457
 20
60.9135944324
 11
226.0513514945
 21
60.9933123354
  0
LINE
  5
394
100
AcDbEntity
  8
SLD-0
100
AcDbLine
 62
7
  6
CONTINUOUS
 10
229.6723600557
 20
55.2088940757
 11
229.479033662
 21
55.2886234219
  0
LINE
  5
395
100
AcDbEntity
  8
SLD-0
100
AcDbLine
 62
7
  6
CONTINUOUS
 10
244.7071361455
 20
50.3363124977
 11
244.5138097519
 21
50.4160418439
  0
LINE
  5
396
100
AcDbEntity
  8
SLD-0
100
AcDbLine
 62
7
  6
CONTINUOUS
 10
227.1238516981
 20
59.4991933254
 11
226.9305253044
 21
59.5789226716
  0
LINE
  5
397
100
AcDbEntity
  8
SLD-0
100
AcDbLine
 62
7
  6
CONTINUOUS
 10
233.8295212694
 20
52.7131400011
 11
234.2020838355
 21
52.5441474857
  0
LINE
  5
398
100
AcDbEntity
  8
SLD-0
100
AcDbLine
 62
7
  6
CONTINUOUS
 10
228.7954249561
 20
42.182662532
 11
228.0225668561
 21
42.6112454462
  0
LINE
  5
399
100
AcDbEntity
  8
SLD-0
100
AcDbLine
 62
7
  6
CONTINUOUS
 10
134.62
 20
0.0
 11
134.62
 21
38.1
  0
LINE
  5
39A
100
AcDbEntity
  8
SLD-0
100
AcDbLine
 62
7
  6
CONTINUOUS
 10
184.0236008403
 20
106.4036328054
 11
183.9288294551
 21
106.3927549578
  0
LINE
  5
39B
100
AcDbEntity
  8
SLD-0
100
AcDbLine
 62
7
  6
CONTINUOUS
 10
184.1353595492
 20
106.2888938642
 11
184.2860102889
 21
106.2941092707
  0
LINE
  5
39C
100
AcDbEntity
  8
SLD-0
100
AcDbLine
 62
7
  6
CONTINUOUS
 10
184.1353595492
 20
106.3064772344
 11
184.2471182582
 21
106.3103515364
  0
LINE
  5
39D
100
AcDbEntity
  8
SLD-0
100
AcDbLine
 62
7
  6
CONTINUOUS
 10
184.1353595492
 20
106.4075071073
 11
184.0236008403
 21
106.4036328054
  0
LINE
  5
39E
100
AcDbEntity
  8
SLD-0
100
AcDbLine
 62
7
  6
CONTINUOUS
 10
184.1353595492
 20
106.4250904776
 11
183.9847088095
 21
106.4198750711
  0
LINE
  5
39F
100
AcDbEntity
  8
SLD-0
100
AcDbLine
 62
7
  6
CONTINUOUS
 10
234.7432959236
 20
103.5114696133
 11
234.8449953772
 21
103.5144129754
  0
LINE
  5
3A0
100
AcDbEntity
  8
SLD-0
100
AcDbLine
 62
7
  6
CONTINUOUS
 10
235.1016052205
 20
103.5575206436
 11
234.9999063438
 21
103.5545770576
  0
LINE
  5
3A1
100
AcDbEntity
  8
SLD-0
100
AcDbLine
 62
7
  6
CONTINUOUS
 10
234.6809943037
 20
103.5034439001
 11
234.8181093539
 21
103.5073670348
  0
LINE
  5
3A2
100
AcDbEntity
  8
SLD-0
100
AcDbLine
 62
7
  6
CONTINUOUS
 10
235.1639024726
 20
103.5654005779
 11
235.0269167799
 21
103.5614888865
  0
LINE
  5
3A3
100
AcDbEntity
  8
SLD-0
100
AcDbLine
 62
7
  6
CONTINUOUS
 10
234.6689079278
 20
103.5119933802
 11
234.7432959236
 21
103.5114696133
  0
LINE
  5
3A4
100
AcDbEntity
  8
SLD-0
100
AcDbLine
 62
7
  6
CONTINUOUS
 10
235.2643406149
 20
103.5646666055
 11
235.1639024726
 21
103.5654005779
  0
LINE
  5
3A5
100
AcDbEntity
  8
SLD-0
100
AcDbLine
 62
7
  6
CONTINUOUS
 10
234.5806860958
 20
103.5041890917
 11
234.6809943037
 21
103.5034439001
  0
LINE
  5
3A6
100
AcDbEntity
  8
SLD-0
100
AcDbLine
 62
7
  6
CONTINUOUS
 10
235.1759894254
 20
103.5568508739
 11
235.1016052205
 21
103.5575206436
  0
LINE
  5
3A7
100
AcDbEntity
  8
SLD-0
100
AcDbLine
 62
7
  6
CONTINUOUS
 10
183.9847088095
 20
106.2941092707
 11
184.1353595492
 21
106.2888938642
  0
LINE
  5
3A8
100
AcDbEntity
  8
SLD-0
100
AcDbLine
 62
7
  6
CONTINUOUS
 10
184.0236008403
 20
106.3103515364
 11
184.1353595492
 21
106.3064772344
  0
LINE
  5
3A9
100
AcDbEntity
  8
SLD-0
100
AcDbLine
 62
7
  6
CONTINUOUS
 10
184.2471182582
 20
106.4036328054
 11
184.1353595492
 21
106.4075071073
  0
LINE
  5
3AA
100
AcDbEntity
  8
SLD-0
100
AcDbLine
 62
7
  6
CONTINUOUS
 10
184.2860102889
 20
106.4198750711
 11
184.1353595492
 21
106.4250904776
  0
LINE
  5
3AB
100
AcDbEntity
  8
SLD-0
100
AcDbLine
 62
7
  6
CONTINUOUS
 10
248.150385056
 20
73.9780072496
 11
247.6628276974
 21
74.1040487916
  0
LINE
  5
3AC
100
AcDbEntity
  8
SLD-0
100
AcDbLine
 62
7
  6
CONTINUOUS
 10
248.3172486462
 20
73.9889482894
 11
247.8251906625
 21
74.1163673799
  0
LINE
  5
3AD
100
AcDbEntity
  8
SLD-0
100
AcDbLine
 62
7
  6
CONTINUOUS
 10
231.5818308955
 20
82.7200959158
 11
231.6824990291
 21
82.6934028575
  0
LINE
  5
3AE
100
AcDbEntity
  8
SLD-0
100
AcDbLine
 62
7
  6
CONTINUOUS
 10
237.2814255955
 20
71.8550992716
 11
237.4493676539
 21
71.8065646487
  0
LINE
  5
3AF
100
AcDbEntity
  8
SLD-0
100
AcDbLine
 62
7
  6
CONTINUOUS
 10
230.7718190079
 20
78.259136831
 11
230.9550932368
 21
78.2043150344
  0
LINE
  5
3B0
100
AcDbEntity
  8
SLD-0
100
AcDbLine
 62
7
  6
CONTINUOUS
 10
239.2101704295
 20
68.6223919718
 11
240.0430718404
 21
68.3333178921
  0
LINE
  5
3B1
100
AcDbEntity
  8
SLD-0
100
AcDbLine
 62
7
  6
CONTINUOUS
 10
239.158105969
 20
68.6771542049
 11
238.544921564
 21
68.8931952823
  0
LINE
  5
3B2
100
AcDbEntity
  8
SLD-0
100
AcDbLine
 62
7
  6
CONTINUOUS
 10
231.7539943481
 20
62.0535549778
 11
231.2684427832
 21
62.2420936606
  0
LINE
  5
3B3
100
AcDbEntity
  8
SLD-0
100
AcDbLine
 62
7
  6
CONTINUOUS
 10
226.117800511
 20
64.9384734766
 11
226.0988348991
 21
64.945837785
  0
LINE
  5
3B4
100
AcDbEntity
  8
SLD-0
100
AcDbLine
 62
7
  6
CONTINUOUS
 10
224.8402758378
 20
65.4345337029
 11
224.385063945
 21
65.611291553
  0
LINE
  5
3B5
100
AcDbEntity
  8
SLD-0
100
AcDbLine
 62
7
  6
CONTINUOUS
 10
226.8614760454
 20
64.7410477091
 11
226.120468723
 21
65.0287793419
  0
LINE
  5
3B6
100
AcDbEntity
  8
SLD-0
100
AcDbLine
 62
7
  6
CONTINUOUS
 10
223.951485894
 20
65.8709909529
 11
223.2104786437
 21
66.1587225576
  0
LINE
  5
3B7
100
AcDbEntity
  8
SLD-0
100
AcDbLine
 62
7
  6
CONTINUOUS
 10
226.6606061971
 20
69.1513213834
 11
227.0819798138
 21
68.987702867
  0
LINE
  5
3B8
100
AcDbEntity
  8
SLD-0
100
AcDbLine
 62
7
  6
CONTINUOUS
 10
228.527207107
 20
68.4265240552
 11
229.018414182
 21
68.2357893493
  0
LINE
  5
3B9
100
AcDbEntity
  8
SLD-0
100
AcDbLine
 62
7
  6
CONTINUOUS
 10
231.7238059526
 20
68.4431019059
 11
230.4228178201
 21
68.9482729457
  0
LINE
  5
3BA
100
AcDbEntity
  8
SLD-0
100
AcDbLine
 62
7
  6
CONTINUOUS
 10
233.4532519744
 20
69.2521857205
 11
233.2802359928
 21
69.3193674735
  0
LINE
  5
3BB
100
AcDbEntity
  8
SLD-0
100
AcDbLine
 62
7
  6
CONTINUOUS
 10
231.1407018537
 20
70.763433779
 11
231.1940323225
 21
70.7427256666
  0
LINE
  5
3BC
100
AcDbEntity
  8
SLD-0
100
AcDbLine
 62
7
  6
CONTINUOUS
 10
233.7669861402
 20
69.8712707459
 11
234.4057761299
 21
69.6232298951
  0
LINE
  5
3BD
100
AcDbEntity
  8
SLD-0
100
AcDbLine
 62
7
  6
CONTINUOUS
 10
241.6506424953
 20
56.1447890664
 11
241.4573117338
 21
56.2243726337
  0
LINE
  5
3BE
100
AcDbEntity
  8
SLD-0
100
AcDbLine
 62
7
  6
CONTINUOUS
 10
235.5981994585
 20
62.5656813994
 11
235.4047437074
 21
62.6453993024
  0
LINE
  5
3BF
100
AcDbEntity
  8
SLD-0
100
AcDbLine
 62
7
  6
CONTINUOUS
 10
242.5741458231
 20
54.4057338354
 11
242.3808194294
 21
54.4854631816
  0
LINE
  5
3C0
100
AcDbEntity
  8
SLD-0
100
AcDbLine
 62
7
  6
CONTINUOUS
 10
236.9722936125
 20
64.196265407
 11
236.7789672188
 21
64.2759947532
  0
LINE
  5
3C1
100
AcDbEntity
  8
SLD-0
100
AcDbLine
 62
7
  6
CONTINUOUS
 10
230.1999778831
 20
42.8275627737
 11
230.3754395205
 21
42.7113588737
  0
LINE
  5
3C2
100
AcDbEntity
  8
SLD-0
100
AcDbLine
 62
7
  6
CONTINUOUS
 10
231.7279782446
 20
44.496623765
 11
231.903439882
 21
44.380419865
  0
LINE
  5
3C3
100
AcDbEntity
  8
SLD-0
100
AcDbLine
 62
7
  6
CONTINUOUS
 10
228.0225668561
 20
42.6112454462
 11
227.2858885042
 21
43.1062746342
  0
LINE
  5
3C4
100
AcDbEntity
  8
SLD-0
100
AcDbLine
 62
7
  6
CONTINUOUS
 10
235.2118288788
 20
103.552917022
 11
235.1759894254
 21
103.5568508739
  0
LINE
  5
3C5
100
AcDbEntity
  8
SLD-0
100
AcDbLine
 62
7
  6
CONTINUOUS
 10
234.532379036
 20
103.5095346891
 11
234.5806860958
 21
103.5041890917
  0
LINE
  5
3C6
100
AcDbEntity
  8
SLD-0
100
AcDbLine
 62
7
  6
CONTINUOUS
 10
235.3125177403
 20
103.5593097889
 11
235.2643406149
 21
103.5646666055
  0
LINE
  5
3C7
100
AcDbEntity
  8
SLD-0
100
AcDbLine
 62
7
  6
CONTINUOUS
 10
234.6330722653
 20
103.5160732349
 11
234.6689079278
 21
103.5119933802
  0
LINE
  5
3C8
100
AcDbEntity
  8
SLD-0
100
AcDbLine
 62
7
  6
CONTINUOUS
 10
184.3418896434
 20
106.3927549578
 11
184.2471182582
 21
106.4036328054
  0
LINE
  5
3C9
100
AcDbEntity
  8
SLD-0
100
AcDbLine
 62
7
  6
CONTINUOUS
 10
183.8568568465
 20
106.3088614202
 11
183.9847088095
 21
106.2941092707
  0
LINE
  5
3CA
100
AcDbEntity
  8
SLD-0
100
AcDbLine
 62
7
  6
CONTINUOUS
 10
184.4137132403
 20
106.4051229216
 11
184.2860102889
 21
106.4198750711
  0
LINE
  5
3CB
100
AcDbEntity
  8
SLD-0
100
AcDbLine
 62
7
  6
CONTINUOUS
 10
183.9288294551
 20
106.3213783956
 11
184.0236008403
 21
106.3103515364
  0
LINE
  5
3CC
100
AcDbEntity
  8
SLD-0
100
AcDbLine
 62
7
  6
CONTINUOUS
 10
248.5779633371
 20
73.8438024853
 11
248.150385056
 21
73.9780072496
  0
LINE
  5
3CD
100
AcDbEntity
  8
SLD-0
100
AcDbLine
 62
7
  6
CONTINUOUS
 10
248.7489426526
 20
73.8533304149
 11
248.3172486462
 21
73.9889482894
  0
LINE
  5
3CE
100
AcDbEntity
  8
SLD-0
100
AcDbLine
 62
7
  6
CONTINUOUS
 10
235.7892402839
 20
69.502319938
 11
237.6013274102
 21
68.7986902008
  0
LINE
  5
3CF
100
AcDbEntity
  8
SLD-0
100
AcDbLine
 62
7
  6
CONTINUOUS
 10
239.9785472796
 20
68.3585785165
 11
239.158105969
 21
68.6771542049
  0
LINE
  5
3D0
100
AcDbEntity
  8
SLD-0
100
AcDbLine
 62
7
  6
CONTINUOUS
 10
229.4132662893
 20
72.8708940052
 11
231.2365836759
 21
72.1629035809
  0
LINE
  5
3D1
100
AcDbEntity
  8
SLD-0
100
AcDbLine
 62
7
  6
CONTINUOUS
 10
232.7213262736
 20
73.1635319353
 11
234.5446436602
 21
72.4555415109
  0
LINE
  5
3D2
100
AcDbEntity
  8
SLD-0
100
AcDbLine
 62
7
  6
CONTINUOUS
 10
238.5963246153
 20
71.3612035987
 11
237.4493676539
 21
71.8065646487
  0
LINE
  5
3D3
100
AcDbEntity
  8
SLD-0
100
AcDbLine
 62
7
  6
CONTINUOUS
 10
237.7127556005
 20
72.3904738564
 11
236.0109483267
 21
73.0512821517
  0
LINE
  5
3D4
100
AcDbEntity
  8
SLD-0
100
AcDbLine
 62
7
  6
CONTINUOUS
 10
231.1013631256
 20
76.6305971842
 11
231.1171147944
 21
76.6244808433
  0
LINE
  5
3D5
100
AcDbEntity
  8
SLD-0
100
AcDbLine
 62
7
  6
CONTINUOUS
 10
228.0603943275
 20
78.8107254727
 11
230.7161448089
 21
77.7795029746
  0
LINE
  5
3D6
100
AcDbEntity
  8
SLD-0
100
AcDbLine
 62
7
  6
CONTINUOUS
 10
231.1337418141
 20
77.7112560713
 11
231.1494934829
 21
77.7051397304
  0
LINE
  5
3D7
100
AcDbEntity
  8
SLD-0
100
AcDbLine
 62
7
  6
CONTINUOUS
 10
228.481194356
 20
78.8479503265
 11
231.1369448374
 21
77.8167278284
  0
LINE
  5
3D8
100
AcDbEntity
  8
SLD-0
100
AcDbLine
 62
7
  6
CONTINUOUS
 10
232.9557862119
 20
78.7910290367
 11
234.8866462626
 21
78.041280015
  0
LINE
  5
3D9
100
AcDbEntity
  8
SLD-0
100
AcDbLine
 62
7
  6
CONTINUOUS
 10
234.9633413895
 20
78.0425207218
 11
234.9517130976
 21
78.0470359639
  0
LINE
  5
3DA
100
AcDbEntity
  8
SLD-0
100
AcDbLine
 62
7
  6
CONTINUOUS
 10
234.8898653498
 20
78.1487190545
 11
232.9590052991
 21
78.8984680762
  0
LINE
  5
3DB
100
AcDbEntity
  8
SLD-0
100
AcDbLine
 62
7
  6
CONTINUOUS
 10
235.3106653783
 20
78.1859439084
 11
232.9650144112
 21
79.0967553972
  0
LINE
  5
3DC
100
AcDbEntity
  8
SLD-0
100
AcDbLine
 62
7
  6
CONTINUOUS
 10
230.4957697596
 20
80.8468021553
 11
231.0393451052
 21
80.6357329567
  0
LINE
  5
3DD
100
AcDbEntity
  8
SLD-0
100
AcDbLine
 62
7
  6
CONTINUOUS
 10
248.9407985802
 20
73.7029143001
 11
248.5779633371
 21
73.8438024853
  0
LINE
  5
3DE
100
AcDbEntity
  8
SLD-0
100
AcDbLine
 62
7
  6
CONTINUOUS
 10
249.1155064136
 20
73.7109944538
 11
248.7489426526
 21
73.8533304149
  0
LINE
  5
3DF
100
AcDbEntity
  8
SLD-0
100
AcDbLine
 62
7
  6
CONTINUOUS
 10
238.7355948218
 20
66.1315641447
 11
238.5421390706
 21
66.2112820477
  0
LINE
  5
3E0
100
AcDbEntity
  8
SLD-0
100
AcDbLine
 62
7
  6
CONTINUOUS
 10
240.028578209
 20
67.5998391265
 11
239.8352518153
 21
67.6795684727
  0
LINE
  5
3E1
100
AcDbEntity
  8
SLD-0
100
AcDbLine
 62
7
  6
CONTINUOUS
 10
227.2054013194
 20
74.1348575622
 11
227.1186530915
 21
74.1711962705
  0
LINE
  5
3E2
100
AcDbEntity
  8
SLD-0
100
AcDbLine
 62
7
  6
CONTINUOUS
 10
227.1956932016
 20
73.7271916622
 11
226.3088749857
 21
74.0995615995
  0
LINE
  5
3E3
100
AcDbEntity
  8
SLD-0
100
AcDbLine
 62
7
  6
CONTINUOUS
 10
231.1161741676
 20
72.0805555507
 11
228.8873576661
 21
73.0166409339
  0
LINE
  5
3E4
100
AcDbEntity
  8
SLD-0
100
AcDbLine
 62
7
  6
CONTINUOUS
 10
230.0751517032
 20
72.9295473222
 11
228.9185616822
 21
73.4152226459
  0
LINE
  5
3E5
100
AcDbEntity
  8
SLD-0
100
AcDbLine
 62
7
  6
CONTINUOUS
 10
229.0142667743
 20
74.3068741491
 11
231.327330322
 21
73.3354212613
  0
LINE
  5
3E6
100
AcDbEntity
  8
SLD-0
100
AcDbLine
 62
7
  6
CONTINUOUS
 10
229.8241742377
 20
74.3785202633
 11
231.339573383
 21
73.7421645205
  0
LINE
  5
3E7
100
AcDbEntity
  8
SLD-0
100
AcDbLine
 62
7
  6
CONTINUOUS
 10
234.5429903164
 20
72.3966740463
 11
234.6314734016
 21
72.3595142216
  0
LINE
  5
3E8
100
AcDbEntity
  8
SLD-0
100
AcDbLine
 62
7
  6
CONTINUOUS
 10
231.7180369141
 20
73.5831149607
 11
232.7177128429
 21
73.163235731
  0
LINE
  5
3E9
100
AcDbEntity
  8
SLD-0
100
AcDbLine
 62
7
  6
CONTINUOUS
 10
233.8077644601
 20
72.2936696178
 11
233.8215659382
 21
72.2878681073
  0
LINE
  5
3EA
100
AcDbEntity
  8
SLD-0
100
AcDbLine
 62
7
  6
CONTINUOUS
 10
231.7057983652
 20
73.1765174243
 11
231.9078053795
 21
73.0915896167
  0
LINE
  5
3EB
100
AcDbEntity
  8
SLD-0
100
AcDbLine
 62
7
  6
CONTINUOUS
 10
240.0430718404
 20
68.3333178921
 11
240.8480532364
 21
67.973584867
  0
LINE
  5
3EC
100
AcDbEntity
  8
SLD-0
100
AcDbLine
 62
7
  6
CONTINUOUS
 10
205.6591312836
 20
77.2984019736
 11
201.6666218374
 21
79.293071411
  0
LINE
  5
3ED
100
AcDbEntity
  8
SLD-0
100
AcDbLine
 62
7
  6
CONTINUOUS
 10
215.9799956685
 20
72.4579087713
 11
211.2034213174
 21
75.0751487234
  0
LINE
  5
3EE
100
AcDbEntity
  8
SLD-0
100
AcDbLine
 62
7
  6
CONTINUOUS
 10
211.3389264601
 20
75.0751487234
 11
216.1155007748
 21
72.4579087713
  0
LINE
  5
3EF
100
AcDbEntity
  8
SLD-0
100
AcDbLine
 62
7
  6
CONTINUOUS
 10
236.7596196567
 20
57.916269215
 11
236.4037183187
 21
58.1203212851
  0
LINE
  5
3F0
100
AcDbEntity
  8
SLD-0
100
AcDbLine
 62
7
  6
CONTINUOUS
 10
233.3238707251
 20
46.3087957628
 11
233.4993323625
 21
46.1925918628
  0
LINE
  5
3F1
100
AcDbEntity
  8
SLD-0
100
AcDbLine
 62
7
  6
CONTINUOUS
 10
234.8584770209
 20
48.0347080263
 11
235.0339386583
 21
47.9185041263
  0
LINE
  5
3F2
100
AcDbEntity
  8
SLD-0
100
AcDbLine
 62
7
  6
CONTINUOUS
 10
227.6002393419
 20
56.0609299183
 11
227.7757009793
 21
55.9447260183
  0
LINE
  5
3F3
100
AcDbEntity
  8
SLD-0
100
AcDbLine
 62
7
  6
CONTINUOUS
 10
226.2921749251
 20
58.2746944246
 11
226.4676365625
 21
58.1584905246
  0
LINE
  5
3F4
100
AcDbEntity
  8
SLD-0
100
AcDbLine
 62
7
  6
CONTINUOUS
 10
225.4131261049
 20
59.6889497528
 11
225.5885877422
 21
59.5727458528
  0
LINE
  5
3F5
100
AcDbEntity
  8
SLD-0
100
AcDbLine
 62
7
  6
CONTINUOUS
 10
228.8408126402
 20
53.9844066182
 11
229.0162699098
 21
53.8680569393
  0
LINE
  5
3F6
100
AcDbEntity
  8
SLD-0
100
AcDbLine
 62
7
  6
CONTINUOUS
 10
233.6234751781
 20
51.1669829519
 11
233.7611701138
 21
51.0734633877
  0
LINE
  5
3F7
100
AcDbEntity
  8
SLD-0
100
AcDbLine
 62
7
  6
CONTINUOUS
 10
231.8545046609
 20
52.5862600186
 11
231.9921995966
 21
52.4927404544
  0
LINE
  5
3F8
100
AcDbEntity
  8
SLD-0
100
AcDbLine
 62
7
  6
CONTINUOUS
 10
234.2580063324
 20
51.9131477134
 11
234.1204407542
 21
52.0066787209
  0
LINE
  5
3F9
100
AcDbEntity
  8
SLD-0
100
AcDbLine
 62
7
  6
CONTINUOUS
 10
232.4891608049
 20
53.3322904444
 11
232.351470237
 21
53.4259557876
  0
LINE
  5
3FA
100
AcDbEntity
  8
SLD-0
100
AcDbLine
 62
7
  6
CONTINUOUS
 10
227.2858885042
 20
43.1062746342
 11
226.5895713422
 21
43.6652121452
  0
LINE
  5
3FB
100
AcDbEntity
  8
SLD-0
100
AcDbLine
 62
7
  6
CONTINUOUS
 10
199.5707630382
 20
107.3209635237
 11
199.7806563709
 21
107.2841576555
  0
LINE
  5
3FC
100
AcDbEntity
  8
SLD-0
100
AcDbLine
 62
7
  6
CONTINUOUS
 10
199.0640350819
 20
107.409923456
 11
199.2739284147
 21
107.3731175879
  0
LINE
  5
3FD
100
AcDbEntity
  8
SLD-0
100
AcDbLine
 62
7
  6
CONTINUOUS
 10
199.4223451444
 20
107.3470405558
 11
199.5707630382
 21
107.3209635237
  0
LINE
  5
3FE
100
AcDbEntity
  8
SLD-0
100
AcDbLine
 62
7
  6
CONTINUOUS
 10
199.2739284147
 20
107.3731175879
 11
199.4223451444
 21
107.3470405558
  0
LINE
  5
3FF
100
AcDbEntity
  8
SLD-0
100
AcDbLine
 62
7
  6
CONTINUOUS
 10
199.0345133205
 20
107.4151388624
 11
199.0640350819
 21
107.409923456
  0
LINE
  5
400
100
AcDbEntity
  8
SLD-0
100
AcDbLine
 62
7
  6
CONTINUOUS
 10
199.7806563709
 20
107.2841576555
 11
199.8101781324
 21
107.2789422491
  0
LINE
  5
401
100
AcDbEntity
  8
SLD-0
100
AcDbLine
 62
7
  6
CONTINUOUS
 10
184.499096894
 20
106.383069203
 11
184.4137132403
 21
106.4051229216
  0
LINE
  5
402
100
AcDbEntity
  8
SLD-0
100
AcDbLine
 62
7
  6
CONTINUOUS
 10
183.7716222045
 20
106.3309151388
 11
183.8568568465
 21
106.3088614202
  0
LINE
  5
403
100
AcDbEntity
  8
SLD-0
100
AcDbLine
 62
7
  6
CONTINUOUS
 10
183.86549952
 20
106.337769673
 11
183.9288294551
 21
106.3213783956
  0
LINE
  5
404
100
AcDbEntity
  8
SLD-0
100
AcDbLine
 62
7
  6
CONTINUOUS
 10
184.4052195784
 20
106.3763636804
 11
184.3418896434
 21
106.3927549578
  0
LINE
  5
405
100
AcDbEntity
  8
SLD-0
100
AcDbLine
 62
7
  6
CONTINUOUS
 10
230.5524117173
 20
82.737262758
 11
231.0959870629
 21
82.5261935594
  0
LINE
  5
406
100
AcDbEntity
  8
SLD-0
100
AcDbLine
 62
7
  6
CONTINUOUS
 10
230.7442076856
 20
82.9664159764
 11
230.9260749675
 21
82.8957972815
  0
LINE
  5
407
100
AcDbEntity
  8
SLD-0
100
AcDbLine
 62
7
  6
CONTINUOUS
 10
231.9490191201
 20
82.4985901524
 11
232.0483931946
 21
82.4600034018
  0
LINE
  5
408
100
AcDbEntity
  8
SLD-0
100
AcDbLine
 62
7
  6
CONTINUOUS
 10
233.000723293
 20
82.5442485213
 11
232.8985828986
 21
82.5839094282
  0
LINE
  5
409
100
AcDbEntity
  8
SLD-0
100
AcDbLine
 62
7
  6
CONTINUOUS
 10
233.3806996676
 20
82.7283040322
 11
232.837124322
 21
82.9393732308
  0
LINE
  5
40A
100
AcDbEntity
  8
SLD-0
100
AcDbLine
 62
7
  6
CONTINUOUS
 10
237.6379744026
 20
68.7852708372
 11
237.3879107571
 21
68.9133401344
  0
LINE
  5
40B
100
AcDbEntity
  8
SLD-0
100
AcDbLine
 62
7
  6
CONTINUOUS
 10
238.559571948
 20
71.374672518
 11
238.8097605833
 21
71.2464688852
  0
LINE
  5
40C
100
AcDbEntity
  8
SLD-0
100
AcDbLine
 62
7
  6
CONTINUOUS
 10
230.6571042672
 20
78.3200235438
 11
230.7718190079
 21
78.259136831
  0
LINE
  5
40D
100
AcDbEntity
  8
SLD-0
100
AcDbLine
 62
7
  6
CONTINUOUS
 10
240.8480532364
 20
67.973584867
 11
241.6209113364
 21
67.5450019528
  0
LINE
  5
40E
100
AcDbEntity
  8
SLD-0
100
AcDbLine
 62
7
  6
CONTINUOUS
 10
242.9747099358
 20
50.7404932825
 11
243.1501715732
 21
50.6242893826
  0
LINE
  5
40F
100
AcDbEntity
  8
SLD-0
100
AcDbLine
 62
7
  6
CONTINUOUS
 10
240.8189613544
 20
54.9201443867
 11
240.9944229918
 21
54.8039404867
  0
LINE
  5
410
100
AcDbEntity
  8
SLD-0
100
AcDbLine
 62
7
  6
CONTINUOUS
 10
234.7665226855
 20
61.3411824986
 11
234.9419843229
 21
61.2249785986
  0
LINE
  5
411
100
AcDbEntity
  8
SLD-0
100
AcDbLine
 62
7
  6
CONTINUOUS
 10
243.87558873
 20
49.1118250401
 11
244.0510459996
 21
48.9954753612
  0
LINE
  5
412
100
AcDbEntity
  8
SLD-0
100
AcDbLine
 62
7
  6
CONTINUOUS
 10
241.7425984076
 20
53.1812463779
 11
241.9180556771
 21
53.064896699
  0
LINE
  5
413
100
AcDbEntity
  8
SLD-0
100
AcDbLine
 62
7
  6
CONTINUOUS
 10
236.140746197
 20
62.9717779495
 11
236.3162034665
 21
62.8554282706
  0
LINE
  5
414
100
AcDbEntity
  8
SLD-0
100
AcDbLine
 62
7
  6
CONTINUOUS
 10
236.1164231727
 20
51.364978527
 11
236.2541181084
 21
51.2714589627
  0
LINE
  5
415
100
AcDbEntity
  8
SLD-0
100
AcDbLine
 62
7
  6
CONTINUOUS
 10
232.1732242923
 20
57.1781797996
 11
232.310919228
 21
57.0846602353
  0
LINE
  5
416
100
AcDbEntity
  8
SLD-0
100
AcDbLine
 62
7
  6
CONTINUOUS
 10
234.6108627506
 20
58.9060458039
 11
234.7485576862
 21
58.8125262396
  0
LINE
  5
417
100
AcDbEntity
  8
SLD-0
100
AcDbLine
 62
7
  6
CONTINUOUS
 10
237.0977579192
 20
58.4111468496
 11
237.2354528548
 21
58.3176272853
  0
LINE
  5
418
100
AcDbEntity
  8
SLD-0
100
AcDbLine
 62
7
  6
CONTINUOUS
 10
237.7324184309
 20
59.1573230543
 11
237.5947234953
 21
59.2508426185
  0
LINE
  5
419
100
AcDbEntity
  8
SLD-0
100
AcDbLine
 62
7
  6
CONTINUOUS
 10
237.9701368707
 20
53.3424425806
 11
238.1077024489
 21
53.2489115732
  0
LINE
  5
41A
100
AcDbEntity
  8
SLD-0
100
AcDbLine
 62
7
  6
CONTINUOUS
 10
232.8077554465
 20
57.924344561
 11
232.6701898684
 21
58.0178755685
  0
LINE
  5
41B
100
AcDbEntity
  8
SLD-0
100
AcDbLine
 62
7
  6
CONTINUOUS
 10
238.6046680249
 20
54.0886073421
 11
238.4671024468
 21
54.1821383496
  0
LINE
  5
41C
100
AcDbEntity
  8
SLD-0
100
AcDbLine
 62
7
  6
CONTINUOUS
 10
238.9739344454
 20
57.2113002211
 11
238.8363688673
 21
57.3048312285
  0
LINE
  5
41D
100
AcDbEntity
  8
SLD-0
100
AcDbLine
 62
7
  6
CONTINUOUS
 10
236.7510793166
 20
52.1110089528
 11
236.6133887488
 21
52.2046742959
  0
LINE
  5
41E
100
AcDbEntity
  8
SLD-0
100
AcDbLine
 62
7
  6
CONTINUOUS
 10
235.2455188945
 20
59.6520762297
 11
235.1078283266
 21
59.7457415728
  0
LINE
  5
41F
100
AcDbEntity
  8
SLD-0
100
AcDbLine
 62
7
  6
CONTINUOUS
 10
231.3886912475
 20
54.6722908495
 11
231.5262524579
 21
54.5786140632
  0
LINE
  5
420
100
AcDbEntity
  8
SLD-0
100
AcDbLine
 62
7
  6
CONTINUOUS
 10
232.0232180339
 20
55.4183098321
 11
231.8856568236
 21
55.5119866185
  0
LINE
  5
421
100
AcDbEntity
  8
SLD-0
100
AcDbLine
 62
7
  6
CONTINUOUS
 10
238.339407659
 20
56.4652812385
 11
238.4769688693
 21
56.3716044521
  0
LINE
  5
422
100
AcDbEntity
  8
SLD-0
100
AcDbLine
 62
7
  6
CONTINUOUS
 10
233.4925659167
 20
52.9509998153
 11
233.8295212694
 21
52.7131400011
  0
LINE
  5
423
100
AcDbEntity
  8
SLD-0
100
AcDbLine
 62
7
  6
CONTINUOUS
 10
204.0714998698
 20
71.2693921545
 11
205.4477164025
 21
70.2133468607
  0
LINE
  5
424
100
AcDbEntity
  8
SLD-0
100
AcDbLine
 62
7
  6
CONTINUOUS
 10
226.5895713422
 20
43.6652121452
 11
225.9371369208
 21
44.2850254754
  0
LINE
  5
425
100
AcDbEntity
  8
SLD-0
100
AcDbLine
 62
7
  6
CONTINUOUS
 10
164.5167887446
 20
73.591126845
 11
164.5167887446
 21
71.0911590315
  0
LINE
  5
426
100
AcDbEntity
  8
SLD-0
100
AcDbLine
 62
7
  6
CONTINUOUS
 10
168.0715121819
 20
38.1
 11
168.0715121819
 21
0.0
  0
LINE
  5
427
100
AcDbEntity
  8
SLD-0
100
AcDbLine
 62
7
  6
CONTINUOUS
 10
183.86549952
 20
106.3763636804
 11
183.8432967898
 21
106.3569921709
  0
LINE
  5
428
100
AcDbEntity
  8
SLD-0
100
AcDbLine
 62
7
  6
CONTINUOUS
 10
184.499096894
 20
106.3309151388
 11
184.529048228
 21
106.3569921709
  0
LINE
  5
429
100
AcDbEntity
  8
SLD-0
100
AcDbLine
 62
7
  6
CONTINUOUS
 10
183.7716222045
 20
106.383069203
 11
183.7415218589
 21
106.3569921709
  0
LINE
  5
42A
100
AcDbEntity
  8
SLD-0
100
AcDbLine
 62
7
  6
CONTINUOUS
 10
184.4052195784
 20
106.337769673
 11
184.4274223086
 21
106.3569921709
  0
LINE
  5
42B
100
AcDbEntity
  8
SLD-0
100
AcDbLine
 62
7
  6
CONTINUOUS
 10
249.4129273091
 20
73.5634984981
 11
249.1155064136
 21
73.7109944538
  0
LINE
  5
42C
100
AcDbEntity
  8
SLD-0
100
AcDbLine
 62
7
  6
CONTINUOUS
 10
249.2348798956
 20
73.5569001141
 11
248.9407985802
 21
73.7029143001
  0
LINE
  5
42D
100
AcDbEntity
  8
SLD-0
100
AcDbLine
 62
7
  6
CONTINUOUS
 10
231.3142737164
 20
72.8461025203
 11
231.3380446914
 21
72.8308900665
  0
LINE
  5
42E
100
AcDbEntity
  8
SLD-0
100
AcDbLine
 62
7
  6
CONTINUOUS
 10
237.903913681
 20
64.9069194651
 11
238.0793753184
 21
64.7907155651
  0
LINE
  5
42F
100
AcDbEntity
  8
SLD-0
100
AcDbLine
 62
7
  6
CONTINUOUS
 10
239.1970264257
 20
66.3752058901
 11
239.3724880631
 21
66.2590019901
  0
LINE
  5
430
100
AcDbEntity
  8
SLD-0
100
AcDbLine
 62
7
  6
CONTINUOUS
 10
241.6209113364
 20
67.5450019528
 11
242.3574603307
 21
67.0499613215
  0
LINE
  5
431
100
AcDbEntity
  8
SLD-0
100
AcDbLine
 62
7
  6
CONTINUOUS
 10
227.5793110464
 20
70.4392406393
 11
227.4643194957
 21
70.5247421725
  0
LINE
  5
432
100
AcDbEntity
  8
SLD-0
100
AcDbLine
 62
7
  6
CONTINUOUS
 10
227.6195037742
 20
71.7806979547
 11
227.7344953248
 21
71.6951964215
  0
LINE
  5
433
100
AcDbEntity
  8
SLD-0
100
AcDbLine
 62
7
  6
CONTINUOUS
 10
237.0752280127
 20
57.6462793608
 11
236.7596196567
 21
57.916269215
  0
LINE
  5
434
100
AcDbEntity
  8
SLD-0
100
AcDbLine
 62
7
  6
CONTINUOUS
 10
231.1844451469
 20
43.9025928498
 11
231.0316590239
 21
44.0522074533
  0
LINE
  5
435
100
AcDbEntity
  8
SLD-0
100
AcDbLine
 62
7
  6
CONTINUOUS
 10
232.7124455084
 20
45.5716538411
 11
232.5596593854
 21
45.7212684446
  0
LINE
  5
436
100
AcDbEntity
  8
SLD-0
100
AcDbLine
 62
7
  6
CONTINUOUS
 10
234.308333621
 20
47.3836800601
 11
234.1555474981
 21
47.5332946636
  0
LINE
  5
437
100
AcDbEntity
  8
SLD-0
100
AcDbLine
 62
7
  6
CONTINUOUS
 10
225.9371369208
 20
44.2850254754
 11
225.3321024229
 21
44.9625363423
  0
LINE
  5
438
100
AcDbEntity
  8
SLD-0
100
AcDbLine
 62
7
  6
CONTINUOUS
 10
182.8215241668
 20
82.2473603941
 11
183.1146300074
 21
81.8533736921
  0
LINE
  5
439
100
AcDbEntity
  8
SLD-0
100
AcDbLine
 62
7
  6
CONTINUOUS
 10
231.5331644869
 20
82.7513891558
 11
231.5818308955
 21
82.7200959158
  0
LINE
  5
43A
100
AcDbEntity
  8
SLD-0
100
AcDbLine
 62
7
  6
CONTINUOUS
 10
249.6379913614
 20
73.4124605639
 11
249.4129273091
 21
73.5634984981
  0
LINE
  5
43B
100
AcDbEntity
  8
SLD-0
100
AcDbLine
 62
7
  6
CONTINUOUS
 10
249.4569956131
 20
73.4073770473
 11
249.2348798956
 21
73.5569001141
  0
LINE
  5
43C
100
AcDbEntity
  8
SLD-0
100
AcDbLine
 62
7
  6
CONTINUOUS
 10
242.3574603307
 20
67.0499613215
 11
243.0539068502
 21
66.4910352538
  0
LINE
  5
43D
100
AcDbEntity
  8
SLD-0
100
AcDbLine
 62
7
  6
CONTINUOUS
 10
183.8432967898
 20
106.3569921709
 11
183.86549952
 21
106.337769673
  0
LINE
  5
43E
100
AcDbEntity
  8
SLD-0
100
AcDbLine
 62
7
  6
CONTINUOUS
 10
183.7415218589
 20
106.3569921709
 11
183.7716222045
 21
106.3309151388
  0
LINE
  5
43F
100
AcDbEntity
  8
SLD-0
100
AcDbLine
 62
7
  6
CONTINUOUS
 10
184.529048228
 20
106.3569921709
 11
184.499096894
 21
106.383069203
  0
LINE
  5
440
100
AcDbEntity
  8
SLD-0
100
AcDbLine
 62
7
  6
CONTINUOUS
 10
184.4274223086
 20
106.3569921709
 11
184.4052195784
 21
106.3763636804
  0
LINE
  5
441
100
AcDbEntity
  8
SLD-0
100
AcDbLine
 62
7
  6
CONTINUOUS
 10
235.8429442847
 20
49.1097381025
 11
235.6901581617
 21
49.259352706
  0
LINE
  5
442
100
AcDbEntity
  8
SLD-0
100
AcDbLine
 62
7
  6
CONTINUOUS
 10
229.8251461786
 20
55.0592794722
 11
229.6723600557
 21
55.2088940757
  0
LINE
  5
443
100
AcDbEntity
  8
SLD-0
100
AcDbLine
 62
7
  6
CONTINUOUS
 10
228.5847066057
 20
57.1359599944
 11
228.4319204827
 21
57.2855745979
  0
LINE
  5
444
100
AcDbEntity
  8
SLD-0
100
AcDbLine
 62
7
  6
CONTINUOUS
 10
227.276637821
 20
59.3495787218
 11
227.1238516981
 21
59.4991933254
  0
LINE
  5
445
100
AcDbEntity
  8
SLD-0
100
AcDbLine
 62
7
  6
CONTINUOUS
 10
226.3975933686
 20
60.7639798289
 11
226.2448072457
 21
60.9135944324
  0
LINE
  5
446
100
AcDbEntity
  8
SLD-0
100
AcDbLine
 62
7
  6
CONTINUOUS
 10
244.8599222685
 20
50.1866978941
 11
244.7071361455
 21
50.3363124977
  0
LINE
  5
447
100
AcDbEntity
  8
SLD-0
100
AcDbLine
 62
7
  6
CONTINUOUS
 10
243.9591771996
 20
51.8155233587
 11
243.8063910766
 21
51.9651379622
  0
LINE
  5
448
100
AcDbEntity
  8
SLD-0
100
AcDbLine
 62
7
  6
CONTINUOUS
 10
242.726931946
 20
54.2561192319
 11
242.5741458231
 21
54.4057338354
  0
LINE
  5
449
100
AcDbEntity
  8
SLD-0
100
AcDbLine
 62
7
  6
CONTINUOUS
 10
233.2000587809
 20
53.2513847894
 11
233.4925659167
 21
52.9509998153
  0
LINE
  5
44A
100
AcDbEntity
  8
SLD-0
100
AcDbLine
 62
7
  6
CONTINUOUS
 10
225.3321024229
 20
44.9625363423
 11
224.7775794876
 21
45.6939490179
  0
LINE
  5
44B
100
AcDbEntity
  8
SLD-0
100
AcDbLine
 62
7
  6
CONTINUOUS
 10
178.2640040156
 20
70.2793437696
 11
178.2640040156
 21
70.9005731798
  0
LINE
  5
44C
100
AcDbEntity
  8
SLD-0
100
AcDbLine
 62
7
  6
CONTINUOUS
 10
178.4151017901
 20
72.8226739622
 11
178.4151017901
 21
73.591126845
  0
LINE
  5
44D
100
AcDbEntity
  8
SLD-0
100
AcDbLine
 62
7
  6
CONTINUOUS
 10
178.9049814337
 20
38.1
 11
178.9049814337
 21
15.24
  0
LINE
  5
44E
100
AcDbEntity
  8
SLD-0
100
AcDbLine
 62
7
  6
CONTINUOUS
 10
181.2078774211
 20
62.0078582025
 11
181.2078774211
 21
65.2664441324
  0
LINE
  5
44F
100
AcDbEntity
  8
SLD-0
100
AcDbLine
 62
7
  6
CONTINUOUS
 10
181.4389944312
 20
72.5602645136
 11
181.4389944312
 21
71.1890596605
  0
LINE
  5
450
100
AcDbEntity
  8
SLD-0
100
AcDbLine
 62
7
  6
CONTINUOUS
 10
181.5103709933
 20
79.7989505983
 11
181.5103709933
 21
67.1092707373
  0
LINE
  5
451
100
AcDbEntity
  8
SLD-0
100
AcDbLine
 62
7
  6
CONTINUOUS
 10
181.9951057669
 20
66.8961841322
 11
181.9951057669
 21
79.7989505983
  0
LINE
  5
452
100
AcDbEntity
  8
SLD-0
100
AcDbLine
 62
7
  6
CONTINUOUS
 10
182.0746779677
 20
70.2793437696
 11
182.0746779677
 21
71.1890596605
  0
LINE
  5
453
100
AcDbEntity
  8
SLD-0
100
AcDbLine
 62
7
  6
CONTINUOUS
 10
182.1938872573
 20
62.9740494944
 11
182.1938872573
 21
74.0851003385
  0
LINE
  5
454
100
AcDbEntity
  8
SLD-0
100
AcDbLine
 62
7
  6
CONTINUOUS
 10
182.8215241668
 20
84.1797429777
 11
182.8215241668
 21
82.2473603941
  0
LINE
  5
455
100
AcDbEntity
  8
SLD-0
100
AcDbLine
 62
7
  6
CONTINUOUS
 10
183.0057025191
 20
81.9995540834
 11
183.0057025191
 21
79.6891290403
  0
LINE
  5
456
100
AcDbEntity
  8
SLD-0
100
AcDbLine
 62
7
  6
CONTINUOUS
 10
183.1146300074
 20
81.8533736921
 11
183.1146300074
 21
84.1797429777
  0
LINE
  5
457
100
AcDbEntity
  8
SLD-0
100
AcDbLine
 62
7
  6
CONTINUOUS
 10
183.1268489596
 20
62.9740494944
 11
183.1268489596
 21
74.0851003385
  0
LINE
  5
458
100
AcDbEntity
  8
SLD-0
100
AcDbLine
 62
7
  6
CONTINUOUS
 10
183.6138189074
 20
82.2436351038
 11
183.6138270611
 21
81.7285154139
  0
LINE
  5
459
100
AcDbEntity
  8
SLD-0
100
AcDbLine
 62
7
  6
CONTINUOUS
 10
183.6138189074
 20
84.1760176874
 11
183.6138189074
 21
82.2436351038
  0
LINE
  5
45A
100
AcDbEntity
  8
SLD-0
100
AcDbLine
 62
7
  6
CONTINUOUS
 10
183.7415218589
 20
106.3569921709
 11
183.7415218589
 21
84.1797429777
  0
LINE
  5
45B
100
AcDbEntity
  8
SLD-0
100
AcDbLine
 62
7
  6
CONTINUOUS
 10
183.999907994
 20
78.584505961
 11
183.999907994
 21
74.0307111002
  0
LINE
  5
45C
100
AcDbEntity
  8
SLD-0
100
AcDbLine
 62
7
  6
CONTINUOUS
 10
184.3828678366
 20
74.0307111002
 11
184.3828678366
 21
78.584505961
  0
LINE
  5
45D
100
AcDbEntity
  8
SLD-0
100
AcDbLine
 62
7
  6
CONTINUOUS
 10
184.529048228
 20
84.1797429777
 11
184.529048228
 21
106.3569921709
  0
LINE
  5
45E
100
AcDbEntity
  8
SLD-0
100
AcDbLine
 62
7
  6
CONTINUOUS
 10
184.7108650757
 20
84.1760176874
 11
184.7108650757
 21
81.7359844276
  0
LINE
  5
45F
100
AcDbEntity
  8
SLD-0
100
AcDbLine
 62
7
  6
CONTINUOUS
 10
185.2204621074
 20
84.1797429777
 11
185.2204621074
 21
81.9341379858
  0
LINE
  5
460
100
AcDbEntity
  8
SLD-0
100
AcDbLine
 62
7
  6
CONTINUOUS
 10
185.2331280944
 20
74.0851003385
 11
185.2331280944
 21
62.9740494944
  0
LINE
  5
461
100
AcDbEntity
  8
SLD-0
100
AcDbLine
 62
7
  6
CONTINUOUS
 10
185.3292405841
 20
79.6891290403
 11
185.3292405841
 21
82.0804673887
  0
LINE
  5
462
100
AcDbEntity
  8
SLD-0
100
AcDbLine
 62
7
  6
CONTINUOUS
 10
185.4533672568
 20
84.1797429777
 11
185.4533672568
 21
82.2473603941
  0
LINE
  5
463
100
AcDbEntity
  8
SLD-0
100
AcDbLine
 62
7
  6
CONTINUOUS
 10
186.1659407851
 20
62.9740494944
 11
186.1659407851
 21
74.0851003385
  0
LINE
  5
464
100
AcDbEntity
  8
SLD-0
100
AcDbLine
 62
7
  6
CONTINUOUS
 10
186.3134622809
 20
79.6891290403
 11
186.3134622809
 21
78.584505961
  0
LINE
  5
465
100
AcDbEntity
  8
SLD-0
100
AcDbLine
 62
7
  6
CONTINUOUS
 10
186.3182306525
 20
65.2664441324
 11
186.3182306525
 21
79.7989505983
  0
LINE
  5
466
100
AcDbEntity
  8
SLD-0
100
AcDbLine
 62
7
  6
CONTINUOUS
 10
186.8029654261
 20
65.2664441324
 11
186.8029654261
 21
79.7989505983
  0
LINE
  5
467
100
AcDbEntity
  8
SLD-0
100
AcDbLine
 62
7
  6
CONTINUOUS
 10
185.2204621074
 20
81.9341379858
 11
185.4533672568
 21
82.2473603941
  0
LINE
  5
468
100
AcDbEntity
  8
SLD-0
100
AcDbLine
 62
7
  6
CONTINUOUS
 10
231.6928767992
 20
82.7936613904
 11
231.6419754969
 21
82.7742025514
  0
LINE
  5
469
100
AcDbEntity
  8
SLD-0
100
AcDbLine
 62
7
  6
CONTINUOUS
 10
232.2346366869
 20
82.6919024054
 11
232.3033299686
 21
82.7181439503
  0
LINE
  5
46A
100
AcDbEntity
  8
SLD-0
100
AcDbLine
 62
7
  6
CONTINUOUS
 10
237.3879107571
 20
68.9133401344
 11
237.1789730204
 21
69.1093110007
  0
LINE
  5
46B
100
AcDbEntity
  8
SLD-0
100
AcDbLine
 62
7
  6
CONTINUOUS
 10
238.8097605833
 20
71.2464688852
 11
239.0185733303
 21
71.0506323545
  0
LINE
  5
46C
100
AcDbEntity
  8
SLD-0
100
AcDbLine
 62
7
  6
CONTINUOUS
 10
243.0539068502
 20
66.4910352538
 11
243.7063369038
 21
65.8710761447
  0
LINE
  5
46D
100
AcDbEntity
  8
SLD-0
100
AcDbLine
 62
7
  6
CONTINUOUS
 10
235.8533647431
 20
73.202513388
 11
236.0109483267
 21
73.0512821517
  0
LINE
  5
46E
100
AcDbEntity
  8
SLD-0
100
AcDbLine
 62
7
  6
CONTINUOUS
 10
241.8034286182
 20
55.9951744628
 11
241.6506424953
 21
56.1447890664
  0
LINE
  5
46F
100
AcDbEntity
  8
SLD-0
100
AcDbLine
 62
7
  6
CONTINUOUS
 10
235.7509855815
 20
62.4160667958
 11
235.5981994585
 21
62.5656813994
  0
LINE
  5
470
100
AcDbEntity
  8
SLD-0
100
AcDbLine
 62
7
  6
CONTINUOUS
 10
237.1250797354
 20
64.0466508035
 11
236.9722936125
 21
64.196265407
  0
LINE
  5
471
100
AcDbEntity
  8
SLD-0
100
AcDbLine
 62
7
  6
CONTINUOUS
 10
238.8883809448
 20
65.9819495412
 11
238.7355948218
 21
66.1315641447
  0
LINE
  5
472
100
AcDbEntity
  8
SLD-0
100
AcDbLine
 62
7
  6
CONTINUOUS
 10
240.1813643319
 20
67.450224523
 11
240.028578209
 21
67.5998391265
  0
LINE
  5
473
100
AcDbEntity
  8
SLD-0
100
AcDbLine
 62
7
  6
CONTINUOUS
 10
203.1082928848
 20
82.9566709021
 11
202.9021638414
 21
83.2336834887
  0
LINE
  5
474
100
AcDbEntity
  8
SLD-0
100
AcDbLine
 62
7
  6
CONTINUOUS
 10
233.1978935123
 20
46.4876795513
 11
233.3238707251
 21
46.3087957628
  0
LINE
  5
475
100
AcDbEntity
  8
SLD-0
100
AcDbLine
 62
7
  6
CONTINUOUS
 10
228.7148354274
 20
54.1632904066
 11
228.8408126402
 21
53.9844066182
  0
LINE
  5
476
100
AcDbEntity
  8
SLD-0
100
AcDbLine
 62
7
  6
CONTINUOUS
 10
230.0740050382
 20
43.006592341
 11
230.1999778831
 21
42.8275627737
  0
LINE
  5
477
100
AcDbEntity
  8
SLD-0
100
AcDbLine
 62
7
  6
CONTINUOUS
 10
225.2871532599
 20
59.8679793201
 11
225.4131261049
 21
59.6889497528
  0
LINE
  5
478
100
AcDbEntity
  8
SLD-0
100
AcDbLine
 62
7
  6
CONTINUOUS
 10
234.732504176
 20
48.2137375936
 11
234.8584770209
 21
48.0347080263
  0
LINE
  5
479
100
AcDbEntity
  8
SLD-0
100
AcDbLine
 62
7
  6
CONTINUOUS
 10
226.1663270699
 20
58.4535896563
 11
226.2921749251
 21
58.2746944246
  0
LINE
  5
47A
100
AcDbEntity
  8
SLD-0
100
AcDbLine
 62
7
  6
CONTINUOUS
 10
231.6021347572
 20
44.6756647755
 11
231.7279782446
 21
44.496623765
  0
LINE
  5
47B
100
AcDbEntity
  8
SLD-0
100
AcDbLine
 62
7
  6
CONTINUOUS
 10
227.4743958545
 20
56.2399709288
 11
227.6002393419
 21
56.0609299183
  0
LINE
  5
47C
100
AcDbEntity
  8
SLD-0
100
AcDbLine
 62
7
  6
CONTINUOUS
 10
224.7775794876
 20
45.6939490179
 11
224.2768047434
 21
46.4753334387
  0
LINE
  5
47D
100
AcDbEntity
  8
SLD-0
100
AcDbLine
 62
7
  6
CONTINUOUS
 10
202.8490778726
 20
71.8906215647
 11
203.1634772398
 21
71.3360003451
  0
LINE
  5
47E
100
AcDbEntity
  8
SLD-0
100
AcDbLine
 62
7
  6
CONTINUOUS
 10
186.8928194281
 20
71.1890596605
 11
186.8928194281
 21
72.5602645136
  0
LINE
  5
47F
100
AcDbEntity
  8
SLD-0
100
AcDbLine
 62
7
  6
CONTINUOUS
 10
187.1716201541
 20
65.2664441324
 11
187.1716201541
 21
62.0078582025
  0
LINE
  5
480
100
AcDbEntity
  8
SLD-0
100
AcDbLine
 62
7
  6
CONTINUOUS
 10
190.9964491972
 20
38.1
 11
190.9964491972
 21
15.24
  0
LINE
  5
481
100
AcDbEntity
  8
SLD-0
100
AcDbLine
 62
7
  6
CONTINUOUS
 10
235.3015184245
 20
103.5501304159
 11
235.3125177403
 21
103.5593097889
  0
LINE
  5
482
100
AcDbEntity
  8
SLD-0
100
AcDbLine
 62
7
  6
CONTINUOUS
 10
234.5435077094
 20
103.5187255054
 11
234.532379036
 21
103.5095346891
  0
LINE
  5
483
100
AcDbEntity
  8
SLD-0
100
AcDbLine
 62
7
  6
CONTINUOUS
 10
234.6413272847
 20
103.5228564013
 11
234.6330722653
 21
103.5160732349
  0
LINE
  5
484
100
AcDbEntity
  8
SLD-0
100
AcDbLine
 62
7
  6
CONTINUOUS
 10
235.2035744362
 20
103.5461336316
 11
235.2118288788
 21
103.552917022
  0
LINE
  5
485
100
AcDbEntity
  8
SLD-0
100
AcDbLine
 62
7
  6
CONTINUOUS
 10
203.1634772398
 20
71.3360003451
 11
203.8633143498
 21
71.732669256
  0
LINE
  5
486
100
AcDbEntity
  8
SLD-0
100
AcDbLine
 62
7
  6
CONTINUOUS
 10
230.8845268893
 20
82.8821290199
 11
230.7740640183
 21
82.8218434327
  0
LINE
  5
487
100
AcDbEntity
  8
SLD-0
100
AcDbLine
 62
7
  6
CONTINUOUS
 10
232.7830711823
 20
78.199369943
 11
232.900498901
 21
78.253374089
  0
LINE
  5
488
100
AcDbEntity
  8
SLD-0
100
AcDbLine
 62
7
  6
CONTINUOUS
 10
236.5240258736
 20
74.0864303018
 11
236.2192759474
 21
73.9569022937
  0
LINE
  5
489
100
AcDbEntity
  8
SLD-0
100
AcDbLine
 62
7
  6
CONTINUOUS
 10
231.6555944762
 20
72.8171781674
 11
231.6889635209
 21
72.8299384684
  0
LINE
  5
48A
100
AcDbEntity
  8
SLD-0
100
AcDbLine
 62
7
  6
CONTINUOUS
 10
237.7133150201
 20
71.2998108538
 11
237.9949215994
 21
71.4020711728
  0
LINE
  5
48B
100
AcDbEntity
  8
SLD-0
100
AcDbLine
 62
7
  6
CONTINUOUS
 10
236.8672923965
 20
74.1806504684
 11
236.5040293103
 21
74.0606450858
  0
LINE
  5
48C
100
AcDbEntity
  8
SLD-0
100
AcDbLine
 62
7
  6
CONTINUOUS
 10
248.7129581124
 20
72.2747958072
 11
249.0854909022
 21
72.3952104954
  0
LINE
  5
48D
100
AcDbEntity
  8
SLD-0
100
AcDbLine
 62
7
  6
CONTINUOUS
 10
236.8975690902
 20
74.2066993333
 11
236.5240258736
 21
74.0864303018
  0
LINE
  5
48E
100
AcDbEntity
  8
SLD-0
100
AcDbLine
 62
7
  6
CONTINUOUS
 10
248.5228069246
 20
72.2827648944
 11
248.8948086582
 21
72.401473943
  0
LINE
  5
48F
100
AcDbEntity
  8
SLD-0
100
AcDbLine
 62
7
  6
CONTINUOUS
 10
235.8145446142
 20
73.222520965
 11
235.96379802
 21
73.0695905197
  0
LINE
  5
490
100
AcDbEntity
  8
SLD-0
100
AcDbLine
 62
7
  6
CONTINUOUS
 10
243.7063369038
 20
65.8710761447
 11
244.3113757695
 21
65.1937110567
  0
LINE
  5
491
100
AcDbEntity
  8
SLD-0
100
AcDbLine
 62
7
  6
CONTINUOUS
 10
237.3426253575
 20
57.3173570794
 11
237.0752280127
 21
57.6462793608
  0
LINE
  5
492
100
AcDbEntity
  8
SLD-0
100
AcDbLine
 62
7
  6
CONTINUOUS
 10
234.6405454728
 20
61.520066287
 11
234.7665226855
 21
61.3411824986
  0
LINE
  5
493
100
AcDbEntity
  8
SLD-0
100
AcDbLine
 62
7
  6
CONTINUOUS
 10
243.7496115173
 20
49.2907088286
 11
243.87558873
 21
49.1118250401
  0
LINE
  5
494
100
AcDbEntity
  8
SLD-0
100
AcDbLine
 62
7
  6
CONTINUOUS
 10
241.6166211948
 20
53.3601301663
 11
241.7425984076
 21
53.1812463779
  0
LINE
  5
495
100
AcDbEntity
  8
SLD-0
100
AcDbLine
 62
7
  6
CONTINUOUS
 10
242.8487370909
 20
50.9195228499
 11
242.9747099358
 21
50.7404932825
  0
LINE
  5
496
100
AcDbEntity
  8
SLD-0
100
AcDbLine
 62
7
  6
CONTINUOUS
 10
240.693117867
 20
55.0991853973
 11
240.8189613544
 21
54.9201443867
  0
LINE
  5
497
100
AcDbEntity
  8
SLD-0
100
AcDbLine
 62
7
  6
CONTINUOUS
 10
232.9596417048
 20
53.6066835644
 11
233.2000587809
 21
53.2513847894
  0
LINE
  5
498
100
AcDbEntity
  8
SLD-0
100
AcDbLine
 62
7
  6
CONTINUOUS
 10
231.2992711633
 20
54.8225676009
 11
231.3886912475
 21
54.6722908495
  0
LINE
  5
499
100
AcDbEntity
  8
SLD-0
100
AcDbLine
 62
7
  6
CONTINUOUS
 10
234.3474220488
 20
51.7627251832
 11
234.2580063324
 21
51.9131477134
  0
LINE
  5
49A
100
AcDbEntity
  8
SLD-0
100
AcDbLine
 62
7
  6
CONTINUOUS
 10
232.5784515316
 20
53.1820022499
 11
232.4891608049
 21
53.3322904444
  0
LINE
  5
49B
100
AcDbEntity
  8
SLD-0
100
AcDbLine
 62
7
  6
CONTINUOUS
 10
232.1125087607
 20
55.2680216375
 11
232.0232180339
 21
55.4183098321
  0
LINE
  5
49C
100
AcDbEntity
  8
SLD-0
100
AcDbLine
 62
7
  6
CONTINUOUS
 10
231.765218302
 20
52.7366939921
 11
231.8545046609
 21
52.5862600186
  0
LINE
  5
49D
100
AcDbEntity
  8
SLD-0
100
AcDbLine
 62
7
  6
CONTINUOUS
 10
233.5341888192
 20
51.3174169254
 11
233.6234751781
 21
51.1669829519
  0
LINE
  5
49E
100
AcDbEntity
  8
SLD-0
100
AcDbLine
 62
7
  6
CONTINUOUS
 10
224.2768047434
 20
46.4753334387
 11
223.8322386741
 21
47.3026908818
  0
LINE
  5
49F
100
AcDbEntity
  8
SLD-0
100
AcDbLine
 62
7
  6
CONTINUOUS
 10
207.0261792365
 20
80.7889989832
 11
208.4790817431
 21
78.0139557341
  0
LINE
  5
4A0
100
AcDbEntity
  8
SLD-0
100
AcDbLine
 62
7
  6
CONTINUOUS
 10
223.8322386741
 20
47.3026908818
 11
223.4463286596
 21
48.1715852875
  0
LINE
  5
4A1
100
AcDbEntity
  8
SLD-0
100
AcDbLine
 62
7
  6
CONTINUOUS
 10
205.9116227288
 20
74.5811752299
 11
205.6591312836
 21
77.2984019736
  0
LINE
  5
4A2
100
AcDbEntity
  8
SLD-0
100
AcDbLine
 62
7
  6
CONTINUOUS
 10
206.960307955
 20
63.2957807997
 11
206.2071924998
 21
71.400522373
  0
LWPOLYLINE
  5
4A3
100
AcDbEntity
  8
SLD-0
100
AcDbPolyline
 62
7
  6
CONTINUOUS
 90
63
 70
0
 10
204.5561997189
 20
85.1697913626
 10
204.5213177672
 20
85.5729964094
 10
204.4895423889
 20
85.9764775078
 10
204.4639801575
 20
86.3805107096
 10
204.4490010577
 20
86.7430232394
 10
204.4443181256
 20
87.1057264474
 10
204.4527489894
 20
87.4681464651
 10
204.4727512416
 20
87.7912403385
 10
204.5020156636
 20
88.1137832174
 10
204.5370988749
 20
88.4358278731
 10
204.5856826921
 20
88.8575232673
 10
204.6278178428
 20
89.2798296431
 10
204.6447255259
 20
89.5177844739
 10
204.6544688612
 20
89.7561321712
 10
204.6552423822
 20
89.9946383456
 10
204.6478778382
 20
90.1929735323
 10
204.632771555
 20
90.3908852535
 10
204.6096395903
 20
90.5880025843
 10
204.5711966279
 20
90.8226224846
 10
204.5217202607
 20
91.0553145333
 10
204.4621006576
 20
91.2858230033
 10
204.3932279872
 20
91.5138921673
 10
204.3159924184
 20
91.7392662981
 10
204.2053773955
 20
92.025330899
 10
204.0830077832
 20
92.3063367623
 10
203.9495347847
 20
92.5821238317
 10
203.8056096031
 20
92.8525320509
 10
203.6546498483
 20
93.1130195628
 10
203.4952639779
 20
93.3684842971
 10
203.3284959861
 20
93.6192553957
 10
203.1553898674
 20
93.8656620005
 10
202.9207528743
 20
94.1828151484
 10
202.6799901442
 20
94.4952871735
 10
202.4360706533
 20
94.8053292254
 10
202.0715520721
 20
95.2687271725
 10
201.7134493186
 20
95.7370988348
 10
201.4825728097
 20
96.0534824119
 10
201.2598436973
 20
96.3756395771
 10
201.0475647372
 20
96.7047802428
 10
200.8967911021
 20
96.9564031809
 10
200.7537436168
 20
97.2125386706
 10
200.6189999902
 20
97.4731065757
 10
200.4931379311
 20
97.7380267599
 10
200.3415176832
 20
98.093355874
 10
200.2054932089
 20
98.4550190209
 10
200.0842465755
 20
98.8219372252
 10
199.983332104
 20
99.1697564358
 10
199.8942993574
 20
99.5207458537
 10
199.8167637472
 20
99.8744062403
 10
199.7621356418
 20
100.1623547853
 10
199.7145068568
 20
100.4515282133
 10
199.669997139
 20
100.7696233099
 10
199.633103443
 20
101.088701866
 10
199.5956979439
 20
101.5057271376
 10
199.569447545
 20
101.9236139277
 10
199.5508553828
 20
102.4420873015
 10
199.5458245479
 20
102.9608837584
 10
199.5549068495
 20
103.5807940058
 10
199.5776722875
 20
104.2003623465
 10
199.6177903868
 20
104.9205198723
 10
199.6691689097
 20
105.6399635294
 10
199.7371258898
 20
106.4596688385
 10
199.8101781324
 20
107.2789422491
  0
LINE
  5
4A4
100
AcDbEntity
  8
SLD-0
100
AcDbLine
 62
7
  6
CONTINUOUS
 10
196.4932425149
 20
74.5811752299
 11
196.4932425149
 21
72.0812074164
  0
LINE
  5
4A5
100
AcDbEntity
  8
SLD-0
100
AcDbLine
 62
7
  6
CONTINUOUS
 10
199.4096733366
 20
72.0812074164
 11
199.4096733366
 21
71.400522373
  0
LINE
  5
4A6
100
AcDbEntity
  8
SLD-0
100
AcDbLine
 62
7
  6
CONTINUOUS
 10
201.4927281967
 20
74.9212197283
 11
201.4927281967
 21
74.5811752299
  0
LINE
  5
4A7
100
AcDbEntity
  8
SLD-0
100
AcDbLine
 62
7
  6
CONTINUOUS
 10
201.520607338
 20
75.0207594851
 11
201.520607338
 21
74.9216667631
  0
LINE
  5
4A8
100
AcDbEntity
  8
SLD-0
100
AcDbLine
 62
7
  6
CONTINUOUS
 10
201.6431548369
 20
79.5745543459
 11
201.6431548369
 21
80.6791774252
  0
LINE
  5
4A9
100
AcDbEntity
  8
SLD-0
100
AcDbLine
 62
7
  6
CONTINUOUS
 10
201.6666218374
 20
79.293071411
 11
201.6666218374
 21
80.7889989832
  0
LINE
  5
4AA
100
AcDbEntity
  8
SLD-0
100
AcDbLine
 62
7
  6
CONTINUOUS
 10
202.7338845648
 20
38.1
 11
202.7338845648
 21
0.0
  0
LINE
  5
4AB
100
AcDbEntity
  8
SLD-0
100
AcDbLine
 62
7
  6
CONTINUOUS
 10
202.9021638414
 20
83.2336834887
 11
202.9021638414
 21
85.1660660723
  0
LINE
  5
4AC
100
AcDbEntity
  8
SLD-0
100
AcDbLine
 62
7
  6
CONTINUOUS
 10
202.9678534599
 20
85.1697913626
 11
202.9678534599
 21
85.1660660723
  0
LINE
  5
4AD
100
AcDbEntity
  8
SLD-0
100
AcDbLine
 62
7
  6
CONTINUOUS
 10
202.9678535151
 20
83.1454686144
 11
202.9678535151
 21
80.7889989832
  0
LINE
  5
4AE
100
AcDbEntity
  8
SLD-0
100
AcDbLine
 62
7
  6
CONTINUOUS
 10
203.1082928848
 20
85.1660660723
 11
203.1082928848
 21
82.9566709021
  0
LINE
  5
4AF
100
AcDbEntity
  8
SLD-0
100
AcDbLine
 62
7
  6
CONTINUOUS
 10
203.297006196
 20
75.0207594851
 11
203.297006196
 21
74.9498299578
  0
LINE
  5
4B0
100
AcDbEntity
  8
SLD-0
100
AcDbLine
 62
7
  6
CONTINUOUS
 10
203.4238366146
 20
74.9517671087
 11
203.4238366146
 21
75.0207594851
  0
LINE
  5
4B1
100
AcDbEntity
  8
SLD-0
100
AcDbLine
 62
7
  6
CONTINUOUS
 10
203.5235893562
 20
85.1697913626
 11
203.5235893562
 21
82.760341396
  0
LINE
  5
4B2
100
AcDbEntity
  8
SLD-0
100
AcDbLine
 62
7
  6
CONTINUOUS
 10
203.8633143498
 20
71.732669256
 11
203.8633143498
 21
71.2693921545
  0
LINE
  5
4B3
100
AcDbEntity
  8
SLD-0
100
AcDbLine
 62
7
  6
CONTINUOUS
 10
204.1186306129
 20
78.0680469492
 11
204.1186306129
 21
75.0207594851
  0
LINE
  5
4B4
100
AcDbEntity
  8
SLD-0
100
AcDbLine
 62
7
  6
CONTINUOUS
 10
204.5016876624
 20
75.0207594851
 11
204.5016876624
 21
77.8767160395
  0
LINE
  5
4B5
100
AcDbEntity
  8
SLD-0
100
AcDbLine
 62
7
  6
CONTINUOUS
 10
204.6205764874
 20
85.1697913626
 11
204.6205764874
 21
82.843352722
  0
LWPOLYLINE
  5
4B6
100
AcDbEntity
  8
SLD-0
100
AcDbPolyline
 62
7
  6
CONTINUOUS
 90
62
 70
0
 10
199.0345133205
 20
107.4151388624
 10
198.9618380961
 20
106.6041212047
 10
198.8939022381
 20
105.7927004317
 10
198.8431135788
 20
105.0984009964
 10
198.8019609094
 20
104.4034651736
 10
198.7771176551
 20
103.8253261609
 10
198.7628686443
 20
103.2468370417
 10
198.7605297092
 20
102.7869591237
 10
198.7675683309
 20
102.3271373728
 10
198.7813875188
 20
101.948159336
 10
198.8031855986
 20
101.5695623377
 10
198.8340427951
 20
101.1870630168
 10
198.8744375963
 20
100.8054307917
 10
198.9265357198
 20
100.4146635517
 10
198.9899030219
 20
100.0255428909
 10
199.0650199555
 20
99.6385208586
 10
199.1545984479
 20
99.2448845241
 10
199.2574224012
 20
98.8544852306
 10
199.3739140422
 20
98.4678856352
 10
199.4707496394
 20
98.1802315579
 10
199.5759584172
 20
97.8955397148
 10
199.689955797
 20
97.6143085511
 10
199.8131572005
 20
97.3370365122
 10
199.9452442081
 20
97.0652326783
 10
200.086211584
 20
96.7978674989
 10
200.2353976317
 20
96.5349579156
 10
200.3921406545
 20
96.27652087
 10
200.6127382844
 20
95.9370329258
 10
200.8433528317
 20
95.6042837545
 10
201.0816202933
 20
95.2769509772
 10
201.4487773638
 20
94.7926411581
 10
201.8212021763
 20
94.3123988131
 10
202.0625623012
 20
94.0003236181
 10
202.3010395432
 20
93.6860433884
 10
202.5343356623
 20
93.367814205
 10
202.7412749991
 20
93.0716138927
 10
202.9395046032
 20
92.7695756206
 10
203.1265817319
 20
92.4606315115
 10
203.2494613345
 20
92.2398590277
 10
203.3645486195
 20
92.0149377802
 10
203.4710987108
 20
91.7847777942
 10
203.5675507473
 20
91.5501705626
 10
203.6391215573
 20
91.3519924753
 10
203.7019900629
 20
91.1508784752
 10
203.7551738291
 20
90.9469715574
 10
203.8064340966
 20
90.6912953698
 10
203.8415882399
 20
90.4328341078
 10
203.8608475091
 20
90.1728562334
 10
203.8650782211
 20
89.9318180655
 10
203.8583534785
 20
89.6907592042
 10
203.8431565271
 20
89.4498715868
 10
203.8219706124
 20
89.2093471506
 10
203.7810733164
 20
88.8226284378
 10
203.7388466186
 20
88.4364072056
 10
203.7030686593
 20
88.0497387865
 10
203.6822619562
 20
87.7129452676
 10
203.671292647
 20
87.3754743887
 10
203.6692642596
 20
87.0376989135
 10
203.675280322
 20
86.6999916056
 10
203.6973095285
 20
86.1893632953
 10
203.7302629938
 20
85.6794088601
 10
203.7686785885
 20
85.1697913626
  0
LINE
  5
4B7
100
AcDbEntity
  8
SLD-0
100
AcDbLine
 62
7
  6
CONTINUOUS
 10
205.5341344063
 20
83.2336834887
 11
205.1509306735
 21
82.7185503462
  0
LINE
  5
4B8
100
AcDbEntity
  8
SLD-0
100
AcDbLine
 62
7
  6
CONTINUOUS
 10
223.8652859069
 20
72.4581530378
 11
226.3088749857
 21
74.0995615995
  0
LINE
  5
4B9
100
AcDbEntity
  8
SLD-0
100
AcDbLine
 62
7
  6
CONTINUOUS
 10
230.6722962113
 20
76.316028731
 11
228.6354731845
 21
75.1328238908
  0
LINE
  5
4BA
100
AcDbEntity
  8
SLD-0
100
AcDbLine
 62
7
  6
CONTINUOUS
 10
229.056273213
 20
75.1700487446
 11
231.0930962398
 21
76.3532535848
  0
LINE
  5
4BB
100
AcDbEntity
  8
SLD-0
100
AcDbLine
 62
7
  6
CONTINUOUS
 10
232.8091937254
 20
75.5020399708
 11
234.8460167522
 21
76.685244811
  0
LINE
  5
4BC
100
AcDbEntity
  8
SLD-0
100
AcDbLine
 62
7
  6
CONTINUOUS
 10
233.2299937539
 20
75.5392648246
 11
235.2668167807
 21
76.7224696648
  0
LINE
  5
4BD
100
AcDbEntity
  8
SLD-0
100
AcDbLine
 62
7
  6
CONTINUOUS
 10
230.3690693409
 20
67.4775353246
 11
231.2237661998
 21
67.9158978895
  0
LINE
  5
4BE
100
AcDbEntity
  8
SLD-0
100
AcDbLine
 62
7
  6
CONTINUOUS
 10
236.4606921446
 20
71.6847917079
 11
236.7269545522
 21
71.8131738317
  0
LINE
  5
4BF
100
AcDbEntity
  8
SLD-0
100
AcDbLine
 62
7
  6
CONTINUOUS
 10
231.2237661998
 20
67.9158978895
 11
231.221019117
 21
67.9146371293
  0
LINE
  5
4C0
100
AcDbEntity
  8
SLD-0
100
AcDbLine
 62
7
  6
CONTINUOUS
 10
236.5040293103
 20
74.0606450858
 11
236.2095563336
 21
73.9315669793
  0
LINE
  5
4C1
100
AcDbEntity
  8
SLD-0
100
AcDbLine
 62
7
  6
CONTINUOUS
 10
249.0854909022
 20
72.3952104954
 11
249.3892620565
 21
72.5248718686
  0
LINE
  5
4C2
100
AcDbEntity
  8
SLD-0
100
AcDbLine
 62
7
  6
CONTINUOUS
 10
248.8948086582
 20
72.401473943
 11
249.1986371399
 21
72.5294478985
  0
LINE
  5
4C3
100
AcDbEntity
  8
SLD-0
100
AcDbLine
 62
7
  6
CONTINUOUS
 10
236.5659963372
 20
64.2770736745
 11
236.3564704474
 21
64.1993638271
  0
LINE
  5
4C4
100
AcDbEntity
  8
SLD-0
100
AcDbLine
 62
7
  6
CONTINUOUS
 10
226.7174250654
 20
59.5799901496
 11
226.5078991755
 21
59.5022803022
  0
LINE
  5
4C5
100
AcDbEntity
  8
SLD-0
100
AcDbLine
 62
7
  6
CONTINUOUS
 10
235.1917728258
 20
62.6464782236
 11
234.9822469359
 21
62.5687683762
  0
LINE
  5
4C6
100
AcDbEntity
  8
SLD-0
100
AcDbLine
 62
7
  6
CONTINUOUS
 10
228.0254894822
 20
57.3662256433
 11
227.8159635923
 21
57.2885157959
  0
LINE
  5
4C7
100
AcDbEntity
  8
SLD-0
100
AcDbLine
 62
7
  6
CONTINUOUS
 10
239.622276566
 20
67.6805016151
 11
239.4127550439
 21
67.6029375466
  0
LINE
  5
4C8
100
AcDbEntity
  8
SLD-0
100
AcDbLine
 62
7
  6
CONTINUOUS
 10
238.3291638213
 20
66.2122151901
 11
238.1196422992
 21
66.1346511215
  0
LINE
  5
4C9
100
AcDbEntity
  8
SLD-0
100
AcDbLine
 62
7
  6
CONTINUOUS
 10
225.8383762451
 20
60.9942454778
 11
225.6288547231
 21
60.9166814092
  0
LINE
  5
4CA
100
AcDbEntity
  8
SLD-0
100
AcDbLine
 62
7
  6
CONTINUOUS
 10
238.4842313305
 20
68.8601325014
 11
238.2026247512
 21
68.7578721824
  0
LINE
  5
4CB
100
AcDbEntity
  8
SLD-0
100
AcDbLine
 62
7
  6
CONTINUOUS
 10
234.9135345849
 20
58.7898999624
 11
235.0807478102
 21
58.8419124753
  0
LINE
  5
4CC
100
AcDbEntity
  8
SLD-0
100
AcDbLine
 62
7
  6
CONTINUOUS
 10
232.5052129697
 20
58.0405018457
 11
232.3379997444
 21
57.9884893329
  0
LINE
  5
4CD
100
AcDbEntity
  8
SLD-0
100
AcDbLine
 62
7
  6
CONTINUOUS
 10
238.6713919686
 20
57.3274575057
 11
238.5040493858
 21
57.2754335497
  0
LINE
  5
4CE
100
AcDbEntity
  8
SLD-0
100
AcDbLine
 62
7
  6
CONTINUOUS
 10
234.9428470601
 20
59.7682220711
 11
234.7756382027
 21
59.7163553371
  0
LINE
  5
4CF
100
AcDbEntity
  8
SLD-0
100
AcDbLine
 62
7
  6
CONTINUOUS
 10
237.4297422287
 20
59.2733231168
 11
237.2625333713
 21
59.2214563829
  0
LINE
  5
4D0
100
AcDbEntity
  8
SLD-0
100
AcDbLine
 62
7
  6
CONTINUOUS
 10
232.4759004945
 20
57.0621797371
 11
232.6431093519
 21
57.114046471
  0
LINE
  5
4D1
100
AcDbEntity
  8
SLD-0
100
AcDbLine
 62
7
  6
CONTINUOUS
 10
237.4004341214
 20
58.2951467871
 11
237.5676429788
 21
58.347013521
  0
LINE
  5
4D2
100
AcDbEntity
  8
SLD-0
100
AcDbLine
 62
7
  6
CONTINUOUS
 10
231.7205461996
 20
55.5344556735
 11
231.5533373422
 21
55.4825889396
  0
LINE
  5
4D3
100
AcDbEntity
  8
SLD-0
100
AcDbLine
 62
7
  6
CONTINUOUS
 10
238.6420794934
 20
56.3491353971
 11
238.8092883508
 21
56.401002131
  0
LINE
  5
4D4
100
AcDbEntity
  8
SLD-0
100
AcDbLine
 62
7
  6
CONTINUOUS
 10
232.1864889705
 20
53.4484362858
 11
232.0192801131
 21
53.3965695519
  0
LINE
  5
4D5
100
AcDbEntity
  8
SLD-0
100
AcDbLine
 62
7
  6
CONTINUOUS
 10
231.6912337244
 20
54.5561335649
 11
231.8585719393
 21
54.6080117421
  0
LINE
  5
4D6
100
AcDbEntity
  8
SLD-0
100
AcDbLine
 62
7
  6
CONTINUOUS
 10
249.7883267882
 20
73.2595416795
 11
249.6379913614
 21
73.4124605639
  0
LINE
  5
4D7
100
AcDbEntity
  8
SLD-0
100
AcDbLine
 62
7
  6
CONTINUOUS
 10
249.6046466119
 20
73.2559939008
 11
249.4569956131
 21
73.4073770473
  0
LINE
  5
4D8
100
AcDbEntity
  8
SLD-0
100
AcDbLine
 62
7
  6
CONTINUOUS
 10
244.3113757695
 20
65.1937110567
 11
244.8657693474
 21
64.4622869379
  0
LINE
  5
4D9
100
AcDbEntity
  8
SLD-0
100
AcDbLine
 62
7
  6
CONTINUOUS
 10
236.0147689842
 20
63.1506617379
 11
236.140746197
 21
62.9717779495
  0
LINE
  5
4DA
100
AcDbEntity
  8
SLD-0
100
AcDbLine
 62
7
  6
CONTINUOUS
 10
237.7779408361
 20
65.0859490324
 11
237.903913681
 21
64.9069194651
  0
LINE
  5
4DB
100
AcDbEntity
  8
SLD-0
100
AcDbLine
 62
7
  6
CONTINUOUS
 10
239.0710535807
 20
66.5542354574
 11
239.1970264257
 21
66.3752058901
  0
LINE
  5
4DC
100
AcDbEntity
  8
SLD-0
100
AcDbLine
 62
7
  6
CONTINUOUS
 10
230.6887858106
 20
80.5582965392
 11
230.4957697596
 21
80.8468021553
  0
LINE
  5
4DD
100
AcDbEntity
  8
SLD-0
100
AcDbLine
 62
7
  6
CONTINUOUS
 10
231.2835309594
 20
80.2707586618
 11
231.0393451052
 21
80.6357329567
  0
LINE
  5
4DE
100
AcDbEntity
  8
SLD-0
100
AcDbLine
 62
7
  6
CONTINUOUS
 10
233.8019854049
 20
69.1826945226
 11
233.5369823266
 21
69.5960293514
  0
LINE
  5
4DF
100
AcDbEntity
  8
SLD-0
100
AcDbLine
 62
7
  6
CONTINUOUS
 10
227.4643194957
 20
70.5247421725
 11
227.3656235662
 21
70.6808980493
  0
LINE
  5
4E0
100
AcDbEntity
  8
SLD-0
100
AcDbLine
 62
7
  6
CONTINUOUS
 10
227.7344953248
 20
71.6951964215
 11
227.8331912543
 21
71.5390405447
  0
LINE
  5
4E1
100
AcDbEntity
  8
SLD-0
100
AcDbLine
 62
7
  6
CONTINUOUS
 10
232.897171163
 20
57.7739220308
 11
232.8077554465
 21
57.924344561
  0
LINE
  5
4E2
100
AcDbEntity
  8
SLD-0
100
AcDbLine
 62
7
  6
CONTINUOUS
 10
237.8807211543
 20
53.4928651109
 11
237.9701368707
 21
53.3424425806
  0
LINE
  5
4E3
100
AcDbEntity
  8
SLD-0
100
AcDbLine
 62
7
  6
CONTINUOUS
 10
239.0633501619
 20
57.0608776908
 11
238.9739344454
 21
57.2113002211
  0
LINE
  5
4E4
100
AcDbEntity
  8
SLD-0
100
AcDbLine
 62
7
  6
CONTINUOUS
 10
236.027132446
 20
51.5152667215
 11
236.1164231727
 21
51.364978527
  0
LINE
  5
4E5
100
AcDbEntity
  8
SLD-0
100
AcDbLine
 62
7
  6
CONTINUOUS
 10
236.8403700434
 20
51.9607207582
 11
236.7510793166
 21
52.1110089528
  0
LINE
  5
4E6
100
AcDbEntity
  8
SLD-0
100
AcDbLine
 62
7
  6
CONTINUOUS
 10
234.5215720238
 20
59.0563339984
 11
234.6108627506
 21
58.9060458039
  0
LINE
  5
4E7
100
AcDbEntity
  8
SLD-0
100
AcDbLine
 62
7
  6
CONTINUOUS
 10
235.3348096212
 20
59.5017880351
 11
235.2455188945
 21
59.6520762297
  0
LINE
  5
4E8
100
AcDbEntity
  8
SLD-0
100
AcDbLine
 62
7
  6
CONTINUOUS
 10
238.2501169323
 20
56.6155694331
 11
238.339407659
 21
56.4652812385
  0
LINE
  5
4E9
100
AcDbEntity
  8
SLD-0
100
AcDbLine
 62
7
  6
CONTINUOUS
 10
232.0839379334
 20
57.328613773
 11
232.1732242923
 21
57.1781797996
  0
LINE
  5
4EA
100
AcDbEntity
  8
SLD-0
100
AcDbLine
 62
7
  6
CONTINUOUS
 10
238.6939543839
 20
53.9381733686
 11
238.6046680249
 21
54.0886073421
  0
LINE
  5
4EB
100
AcDbEntity
  8
SLD-0
100
AcDbLine
 62
7
  6
CONTINUOUS
 10
237.0084715603
 20
58.561580823
 11
237.0977579192
 21
58.4111468496
  0
LINE
  5
4EC
100
AcDbEntity
  8
SLD-0
100
AcDbLine
 62
7
  6
CONTINUOUS
 10
237.8217047899
 20
59.0068890808
 11
237.7324184309
 21
59.1573230543
  0
LINE
  5
4ED
100
AcDbEntity
  8
SLD-0
100
AcDbLine
 62
7
  6
CONTINUOUS
 10
237.5547134852
 20
56.9380341762
 11
237.3426253575
 21
57.3173570794
  0
LINE
  5
4EE
100
AcDbEntity
  8
SLD-0
100
AcDbLine
 62
7
  6
CONTINUOUS
 10
232.8081446742
 20
45.3682827181
 11
232.7124455084
 21
45.5716538411
  0
LINE
  5
4EF
100
AcDbEntity
  8
SLD-0
100
AcDbLine
 62
7
  6
CONTINUOUS
 10
227.3723369868
 20
59.1462075988
 11
227.276637821
 21
59.3495787218
  0
LINE
  5
4F0
100
AcDbEntity
  8
SLD-0
100
AcDbLine
 62
7
  6
CONTINUOUS
 10
229.9208453444
 20
54.8559083492
 11
229.8251461786
 21
55.0592794722
  0
LINE
  5
4F1
100
AcDbEntity
  8
SLD-0
100
AcDbLine
 62
7
  6
CONTINUOUS
 10
228.6804014036
 20
56.9324430925
 11
228.5847066057
 21
57.1359599944
  0
LINE
  5
4F2
100
AcDbEntity
  8
SLD-0
100
AcDbLine
 62
7
  6
CONTINUOUS
 10
226.4931631769
 20
60.5605972627
 11
226.3975933686
 21
60.7639798289
  0
LINE
  5
4F3
100
AcDbEntity
  8
SLD-0
100
AcDbLine
 62
7
  6
CONTINUOUS
 10
234.4039034293
 20
47.1802974938
 11
234.308333621
 21
47.3836800601
  0
LINE
  5
4F4
100
AcDbEntity
  8
SLD-0
100
AcDbLine
 62
7
  6
CONTINUOUS
 10
235.9385140929
 20
48.9063555362
 11
235.8429442847
 21
49.1097381025
  0
LINE
  5
4F5
100
AcDbEntity
  8
SLD-0
100
AcDbLine
 62
7
  6
CONTINUOUS
 10
231.2800105873
 20
43.6990645047
 11
231.1844451469
 21
43.9025928498
  0
LINE
  5
4F6
100
AcDbEntity
  8
SLD-0
100
AcDbLine
 62
7
  6
CONTINUOUS
 10
232.7773605629
 20
54.0076896737
 11
232.9596417048
 21
53.6066835644
  0
LINE
  5
4F7
100
AcDbEntity
  8
SLD-0
100
AcDbLine
 62
7
  6
CONTINUOUS
 10
223.4463286596
 20
48.1715852875
 11
223.1211252719
 21
49.0772547089
  0
LINE
  5
4F8
100
AcDbEntity
  8
SLD-0
100
AcDbLine
 62
7
  6
CONTINUOUS
 10
205.1509306735
 20
82.7185503462
 11
205.1509306735
 21
85.1660660723
  0
LINE
  5
4F9
100
AcDbEntity
  8
SLD-0
100
AcDbLine
 62
7
  6
CONTINUOUS
 10
205.2002354727
 20
74.9799303034
 11
205.2002354727
 21
75.0207594851
  0
LINE
  5
4FA
100
AcDbEntity
  8
SLD-0
100
AcDbLine
 62
7
  6
CONTINUOUS
 10
205.2913700432
 20
80.7889989832
 11
205.2913700432
 21
82.9073480585
  0
LINE
  5
4FB
100
AcDbEntity
  8
SLD-0
100
AcDbLine
 62
7
  6
CONTINUOUS
 10
205.2913703029
 20
85.1660660723
 11
205.2913703029
 21
85.1697913626
  0
LINE
  5
4FC
100
AcDbEntity
  8
SLD-0
100
AcDbLine
 62
7
  6
CONTINUOUS
 10
205.3150826801
 20
71.2693921545
 11
205.3150826801
 21
71.8906215647
  0
LINE
  5
4FD
100
AcDbEntity
  8
SLD-0
100
AcDbLine
 62
7
  6
CONTINUOUS
 10
205.5341344063
 20
85.1660660723
 11
205.5341344063
 21
83.2336834887
  0
LINE
  5
4FE
100
AcDbEntity
  8
SLD-0
100
AcDbLine
 62
7
  6
CONTINUOUS
 10
207.3534413326
 20
71.400522373
 11
207.3534413326
 21
72.0812074164
  0
LINE
  5
4FF
100
AcDbEntity
  8
SLD-0
100
AcDbLine
 62
7
  6
CONTINUOUS
 10
207.8318901495
 20
9.525
 11
207.8318901495
 21
3.175
  0
LINE
  5
500
100
AcDbEntity
  8
SLD-0
100
AcDbLine
 62
7
  6
CONTINUOUS
 10
207.9401972556
 20
66.2564925173
 11
207.9401972556
 21
62.9979065874
  0
LINE
  5
501
100
AcDbEntity
  8
SLD-0
100
AcDbLine
 62
7
  6
CONTINUOUS
 10
209.435620604
 20
66.2564925173
 11
209.435620604
 21
62.9979065874
  0
LINE
  5
502
100
AcDbEntity
  8
SLD-0
100
AcDbLine
 62
7
  6
CONTINUOUS
 10
210.3542815208
 20
65.9510187128
 11
210.3542815208
 21
63.4051553229
  0
LINE
  5
503
100
AcDbEntity
  8
SLD-0
100
AcDbLine
 62
7
  6
CONTINUOUS
 10
210.6350685377
 20
72.0812074164
 11
210.6350685377
 21
74.5811752299
  0
LINE
  5
504
100
AcDbEntity
  8
SLD-0
100
AcDbLine
 62
7
  6
CONTINUOUS
 10
210.7424266838
 20
69.1994718531
 11
210.7424266838
 21
40.7062164763
  0
LINE
  5
505
100
AcDbEntity
  8
SLD-0
100
AcDbLine
 62
7
  6
CONTINUOUS
 10
212.3981553855
 20
40.7062164763
 11
212.3981553855
 21
69.1994718531
  0
LINE
  5
506
100
AcDbEntity
  8
SLD-0
100
AcDbLine
 62
7
  6
CONTINUOUS
 10
212.8941735687
 20
63.4051553229
 11
212.8941735687
 21
65.9510187128
  0
LINE
  5
507
100
AcDbEntity
  8
SLD-0
100
AcDbLine
 62
7
  6
CONTINUOUS
 10
213.8128345219
 20
62.9979065874
 11
213.8128345219
 21
66.2564925173
  0
LINE
  5
508
100
AcDbEntity
  8
SLD-0
100
AcDbLine
 62
7
  6
CONTINUOUS
 10
208.4790817431
 20
78.0139557341
 11
208.4389992202
 21
74.5811752299
  0
LINE
  5
509
100
AcDbEntity
  8
SLD-0
100
AcDbLine
 62
7
  6
CONTINUOUS
 10
208.4098080782
 20
72.0812074164
 11
208.3417960644
 21
66.2564925173
  0
LINE
  5
50A
100
AcDbEntity
  8
SLD-0
100
AcDbLine
 62
7
  6
CONTINUOUS
 10
227.3964167342
 20
71.7086392006
 11
227.5020924484
 21
71.7854379847
  0
LINE
  5
50B
100
AcDbEntity
  8
SLD-0
100
AcDbLine
 62
7
  6
CONTINUOUS
 10
227.8023980864
 20
70.5112993935
 11
227.6967223722
 21
70.4345006094
  0
LINE
  5
50C
100
AcDbEntity
  8
SLD-0
100
AcDbLine
 62
7
  6
CONTINUOUS
 10
228.7354789236
 20
66.4051295541
 11
229.5381954769
 21
66.9730911094
  0
LINE
  5
50D
100
AcDbEntity
  8
SLD-0
100
AcDbLine
 62
7
  6
CONTINUOUS
 10
228.9871141896
 20
74.288659836
 11
229.0142667743
 21
74.3068741491
  0
LINE
  5
50E
100
AcDbEntity
  8
SLD-0
100
AcDbLine
 62
7
  6
CONTINUOUS
 10
237.4542230798
 20
71.1265551923
 11
237.7133150201
 21
71.2998108538
  0
LINE
  5
50F
100
AcDbEntity
  8
SLD-0
100
AcDbLine
 62
7
  6
CONTINUOUS
 10
236.2095563336
 20
73.9315669793
 11
235.9870473619
 21
73.7948356493
  0
LINE
  5
510
100
AcDbEntity
  8
SLD-0
100
AcDbLine
 62
7
  6
CONTINUOUS
 10
229.5381954769
 20
66.9730911094
 11
230.3690693409
 21
67.4775353246
  0
LINE
  5
511
100
AcDbEntity
  8
SLD-0
100
AcDbLine
 62
7
  6
CONTINUOUS
 10
249.3892620565
 20
72.5248718686
 11
249.6209409217
 21
72.6623596227
  0
LINE
  5
512
100
AcDbEntity
  8
SLD-0
100
AcDbLine
 62
7
  6
CONTINUOUS
 10
236.2192759474
 20
73.9569022937
 11
235.9865268812
 21
73.8195217339
  0
LINE
  5
513
100
AcDbEntity
  8
SLD-0
100
AcDbLine
 62
7
  6
CONTINUOUS
 10
249.1986371399
 20
72.5294478985
 11
249.4308150528
 21
72.6652617334
  0
LINE
  5
514
100
AcDbEntity
  8
SLD-0
100
AcDbLine
 62
7
  6
CONTINUOUS
 10
239.7926262088
 20
66.2569123175
 11
239.9917705457
 21
66.3713604483
  0
LINE
  5
515
100
AcDbEntity
  8
SLD-0
100
AcDbLine
 62
7
  6
CONTINUOUS
 10
226.008725888
 20
59.5706561801
 11
226.2079995824
 21
59.6851157542
  0
LINE
  5
516
100
AcDbEntity
  8
SLD-0
100
AcDbLine
 62
7
  6
CONTINUOUS
 10
238.4995134641
 20
64.7886258924
 11
238.6987871585
 21
64.9030854665
  0
LINE
  5
517
100
AcDbEntity
  8
SLD-0
100
AcDbLine
 62
7
  6
CONTINUOUS
 10
226.8879040658
 20
58.1564122952
 11
227.0870440348
 21
58.2707146472
  0
LINE
  5
518
100
AcDbEntity
  8
SLD-0
100
AcDbLine
 62
7
  6
CONTINUOUS
 10
234.7730241159
 20
58.1995349251
 11
234.3665280879
 21
58.0325767909
  0
LINE
  5
519
100
AcDbEntity
  8
SLD-0
100
AcDbLine
 62
7
  6
CONTINUOUS
 10
229.2660627805
 20
55.2897023432
 11
229.0565368906
 21
55.2119924958
  0
LINE
  5
51A
100
AcDbEntity
  8
SLD-0
100
AcDbLine
 62
7
  6
CONTINUOUS
 10
242.1678485479
 20
54.4865421029
 11
241.958322658
 21
54.4088322554
  0
LINE
  5
51B
100
AcDbEntity
  8
SLD-0
100
AcDbLine
 62
7
  6
CONTINUOUS
 10
241.2443408522
 20
56.2254515549
 11
241.0346856048
 21
56.1477302643
  0
LINE
  5
51C
100
AcDbEntity
  8
SLD-0
100
AcDbLine
 62
7
  6
CONTINUOUS
 10
235.2837271612
 20
49.3400037513
 11
235.0742056391
 21
49.2624396828
  0
LINE
  5
51D
100
AcDbEntity
  8
SLD-0
100
AcDbLine
 62
7
  6
CONTINUOUS
 10
243.3999600761
 20
52.0457890075
 11
243.190438554
 21
51.968224939
  0
LINE
  5
51E
100
AcDbEntity
  8
SLD-0
100
AcDbLine
 62
7
  6
CONTINUOUS
 10
235.4344468736
 20
52.4843642147
 11
235.8478580084
 21
52.6151497712
  0
LINE
  5
51F
100
AcDbEntity
  8
SLD-0
100
AcDbLine
 62
7
  6
CONTINUOUS
 10
232.1571764953
 20
52.4701141772
 11
232.3243897206
 21
52.52212669
  0
LINE
  5
520
100
AcDbEntity
  8
SLD-0
100
AcDbLine
 62
7
  6
CONTINUOUS
 10
233.9261470125
 20
51.0508371105
 11
234.0933602377
 21
51.1028496233
  0
LINE
  5
521
100
AcDbEntity
  8
SLD-0
100
AcDbLine
 62
7
  6
CONTINUOUS
 10
236.4190950071
 20
51.2488326856
 11
236.5863082323
 21
51.3008451984
  0
LINE
  5
522
100
AcDbEntity
  8
SLD-0
100
AcDbLine
 62
7
  6
CONTINUOUS
 10
238.3019918227
 20
54.2046074046
 11
238.1347829653
 21
54.1527406707
  0
LINE
  5
523
100
AcDbEntity
  8
SLD-0
100
AcDbLine
 62
7
  6
CONTINUOUS
 10
233.9554594877
 20
52.0291592192
 11
233.7882506303
 21
51.9772924852
  0
LINE
  5
524
100
AcDbEntity
  8
SLD-0
100
AcDbLine
 62
7
  6
CONTINUOUS
 10
236.4484074822
 20
52.2271547942
 11
236.2811986248
 21
52.1752880602
  0
LINE
  5
525
100
AcDbEntity
  8
SLD-0
100
AcDbLine
 62
7
  6
CONTINUOUS
 10
238.2726837154
 20
53.2264310749
 11
238.4400219303
 21
53.278309252
  0
LINE
  5
526
100
AcDbEntity
  8
SLD-0
100
AcDbLine
 62
7
  6
CONTINUOUS
 10
244.8657693474
 20
64.4622869379
 11
245.3666690812
 21
63.6807681814
  0
LINE
  5
527
100
AcDbEntity
  8
SLD-0
100
AcDbLine
 62
7
  6
CONTINUOUS
 10
237.1789730204
 20
69.1093110007
 11
237.0235875866
 21
69.3616335535
  0
LINE
  5
528
100
AcDbEntity
  8
SLD-0
100
AcDbLine
 62
7
  6
CONTINUOUS
 10
239.0185733303
 20
71.0506323545
 11
239.1739587641
 21
70.7983098017
  0
LINE
  5
529
100
AcDbEntity
  8
SLD-0
100
AcDbLine
 62
7
  6
CONTINUOUS
 10
230.6190713417
 20
78.3831428924
 11
230.6571042672
 21
78.3200235438
  0
LINE
  5
52A
100
AcDbEntity
  8
SLD-0
100
AcDbLine
 62
7
  6
CONTINUOUS
 10
235.7717535336
 20
73.3541558695
 11
235.8533647431
 21
73.202513388
  0
LINE
  5
52B
100
AcDbEntity
  8
SLD-0
100
AcDbLine
 62
7
  6
CONTINUOUS
 10
237.2207789012
 20
63.8432796805
 11
237.1250797354
 21
64.0466508035
  0
LINE
  5
52C
100
AcDbEntity
  8
SLD-0
100
AcDbLine
 62
7
  6
CONTINUOUS
 10
242.8226311118
 20
54.0527481089
 11
242.726931946
 21
54.2561192319
  0
LINE
  5
52D
100
AcDbEntity
  8
SLD-0
100
AcDbLine
 62
7
  6
CONTINUOUS
 10
244.9556214342
 20
49.9833267711
 11
244.8599222685
 21
50.1866978941
  0
LINE
  5
52E
100
AcDbEntity
  8
SLD-0
100
AcDbLine
 62
7
  6
CONTINUOUS
 10
241.8991234161
 20
55.791657561
 11
241.8034286182
 21
55.9951744628
  0
LINE
  5
52F
100
AcDbEntity
  8
SLD-0
100
AcDbLine
 62
7
  6
CONTINUOUS
 10
235.8465553897
 20
62.2126842296
 11
235.7509855815
 21
62.4160667958
  0
LINE
  5
530
100
AcDbEntity
  8
SLD-0
100
AcDbLine
 62
7
  6
CONTINUOUS
 10
244.0547470078
 20
51.6121407925
 11
243.9591771996
 21
51.8155233587
  0
LINE
  5
531
100
AcDbEntity
  8
SLD-0
100
AcDbLine
 62
7
  6
CONTINUOUS
 10
227.3656235662
 20
70.6808980493
 11
227.2951247146
 21
70.8887818926
  0
LINE
  5
532
100
AcDbEntity
  8
SLD-0
100
AcDbLine
 62
7
  6
CONTINUOUS
 10
227.8331912543
 20
71.5390405447
 11
227.903690106
 21
71.3311567014
  0
LINE
  5
533
100
AcDbEntity
  8
SLD-0
100
AcDbLine
 62
7
  6
CONTINUOUS
 10
225.2244032937
 20
60.0902583734
 11
225.2871532599
 21
59.8679793201
  0
LINE
  5
534
100
AcDbEntity
  8
SLD-0
100
AcDbLine
 62
7
  6
CONTINUOUS
 10
230.0112550719
 20
43.2288713943
 11
230.0740050382
 21
43.006592341
  0
LINE
  5
535
100
AcDbEntity
  8
SLD-0
100
AcDbLine
 62
7
  6
CONTINUOUS
 10
226.1035771036
 20
58.6758687096
 11
226.1663270699
 21
58.4535896563
  0
LINE
  5
536
100
AcDbEntity
  8
SLD-0
100
AcDbLine
 62
7
  6
CONTINUOUS
 10
227.4116458882
 20
56.4622499822
 11
227.4743958545
 21
56.2399709288
  0
LINE
  5
537
100
AcDbEntity
  8
SLD-0
100
AcDbLine
 62
7
  6
CONTINUOUS
 10
228.6520854612
 20
54.3855694599
 11
228.7148354274
 21
54.1632904066
  0
LINE
  5
538
100
AcDbEntity
  8
SLD-0
100
AcDbLine
 62
7
  6
CONTINUOUS
 10
231.539384791
 20
44.8979438288
 11
231.6021347572
 21
44.6756647755
  0
LINE
  5
539
100
AcDbEntity
  8
SLD-0
100
AcDbLine
 62
7
  6
CONTINUOUS
 10
223.1211252719
 20
49.0772547089
 11
222.8582953781
 21
50.0150486478
  0
LINE
  5
53A
100
AcDbEntity
  8
SLD-0
100
AcDbLine
 62
7
  6
CONTINUOUS
 10
222.8582953781
 20
50.0150486478
 11
222.6592296589
 21
50.9797106045
  0
LINE
  5
53B
100
AcDbEntity
  8
SLD-0
100
AcDbLine
 62
7
  6
CONTINUOUS
 10
222.5252025411
 20
51.9664099723
 11
222.456690467
 21
52.9695185909
  0
LINE
  5
53C
100
AcDbEntity
  8
SLD-0
100
AcDbLine
 62
7
  6
CONTINUOUS
 10
222.456690467
 20
52.9695185909
 11
222.4541873505
 21
53.9839914154
  0
LINE
  5
53D
100
AcDbEntity
  8
SLD-0
100
AcDbLine
 62
7
  6
CONTINUOUS
 10
214.609927501
 20
3.175
 11
214.609927501
 21
0.0
  0
LINE
  5
53E
100
AcDbEntity
  8
SLD-0
100
AcDbLine
 62
7
  6
CONTINUOUS
 10
214.6968892744
 20
68.7174192885
 11
214.6968892744
 21
66.2564925173
  0
LINE
  5
53F
100
AcDbEntity
  8
SLD-0
100
AcDbLine
 62
7
  6
CONTINUOUS
 10
215.3082577248
 20
62.9979065874
 11
215.3082577248
 21
66.2564925173
  0
LINE
  5
540
100
AcDbEntity
  8
SLD-0
100
AcDbLine
 62
7
  6
CONTINUOUS
 10
215.9799956685
 20
72.4579087713
 11
215.9799956685
 21
63.9640978792
  0
LINE
  5
541
100
AcDbEntity
  8
SLD-0
100
AcDbLine
 62
7
  6
CONTINUOUS
 10
216.1155007748
 20
72.4579087713
 11
216.1155007748
 21
63.9640978792
  0
LINE
  5
542
100
AcDbEntity
  8
SLD-0
100
AcDbLine
 62
7
  6
CONTINUOUS
 10
231.6419754969
 20
82.7742025514
 11
231.6317316232
 21
82.7596784763
  0
LINE
  5
543
100
AcDbEntity
  8
SLD-0
100
AcDbLine
 62
7
  6
CONTINUOUS
 10
232.3033299686
 20
82.7181439503
 11
232.3171192213
 21
82.7374586122
  0
LINE
  5
544
100
AcDbEntity
  8
SLD-0
100
AcDbLine
 62
7
  6
CONTINUOUS
 10
235.9870473619
 20
73.7948356493
 11
235.8389631588
 21
73.6519624865
  0
LINE
  5
545
100
AcDbEntity
  8
SLD-0
100
AcDbLine
 62
7
  6
CONTINUOUS
 10
235.9865268812
 20
73.8195217339
 11
235.8284011723
 21
73.6757988847
  0
LINE
  5
546
100
AcDbEntity
  8
SLD-0
100
AcDbLine
 62
7
  6
CONTINUOUS
 10
225.6288547231
 20
60.9166814092
 11
225.4454742186
 21
60.7685881876
  0
LINE
  5
547
100
AcDbEntity
  8
SLD-0
100
AcDbLine
 62
7
  6
CONTINUOUS
 10
226.5078991755
 20
59.5022803022
 11
226.3245230388
 21
59.3543328595
  0
LINE
  5
548
100
AcDbEntity
  8
SLD-0
100
AcDbLine
 62
7
  6
CONTINUOUS
 10
236.2211684826
 20
71.4929121473
 11
236.4606921446
 21
71.6847917079
  0
LINE
  5
549
100
AcDbEntity
  8
SLD-0
100
AcDbLine
 62
7
  6
CONTINUOUS
 10
228.3443604028
 20
66.0969017043
 11
228.7354789236
 21
66.4051295541
  0
LINE
  5
54A
100
AcDbEntity
  8
SLD-0
100
AcDbLine
 62
7
  6
CONTINUOUS
 10
238.7434482605
 20
69.0332538273
 11
238.4842313305
 21
68.8601325014
  0
LINE
  5
54B
100
AcDbEntity
  8
SLD-0
100
AcDbLine
 62
7
  6
CONTINUOUS
 10
234.3665280879
 20
58.0325767909
 11
233.9818317032
 21
57.7965955591
  0
LINE
  5
54C
100
AcDbEntity
  8
SLD-0
100
AcDbLine
 62
7
  6
CONTINUOUS
 10
236.7363416123
 20
62.853338598
 11
236.9354859492
 21
62.9677867288
  0
LINE
  5
54D
100
AcDbEntity
  8
SLD-0
100
AcDbLine
 62
7
  6
CONTINUOUS
 10
228.1959684826
 20
55.9426477889
 11
228.3951128194
 21
56.0570959197
  0
LINE
  5
54E
100
AcDbEntity
  8
SLD-0
100
AcDbLine
 62
7
  6
CONTINUOUS
 10
229.4364080555
 20
53.8659672667
 11
229.6355523924
 21
53.9804153975
  0
LINE
  5
54F
100
AcDbEntity
  8
SLD-0
100
AcDbLine
 62
7
  6
CONTINUOUS
 10
235.3621224687
 20
61.222888926
 11
235.5613917953
 21
61.3372027212
  0
LINE
  5
550
100
AcDbEntity
  8
SLD-0
100
AcDbLine
 62
7
  6
CONTINUOUS
 10
235.8478580084
 20
52.6151497712
 11
236.24482994
 21
52.8173227237
  0
LINE
  5
551
100
AcDbEntity
  8
SLD-0
100
AcDbLine
 62
7
  6
CONTINUOUS
 10
233.7491208654
 20
47.6140914878
 11
233.5395949755
 21
47.5363816404
  0
LINE
  5
552
100
AcDbEntity
  8
SLD-0
100
AcDbLine
 62
7
  6
CONTINUOUS
 10
244.3008388703
 20
50.4171207651
 11
244.0913129805
 21
50.3394109177
  0
LINE
  5
553
100
AcDbEntity
  8
SLD-0
100
AcDbLine
 62
7
  6
CONTINUOUS
 10
230.6252280234
 20
44.1328584987
 11
230.4157021335
 21
44.0551486513
  0
LINE
  5
554
100
AcDbEntity
  8
SLD-0
100
AcDbLine
 62
7
  6
CONTINUOUS
 10
232.1533577424
 20
45.8019309332
 11
231.9437068628
 21
45.7243554214
  0
LINE
  5
555
100
AcDbEntity
  8
SLD-0
100
AcDbLine
 62
7
  6
CONTINUOUS
 10
237.5459101593
 20
41.8705214557
 11
236.6574451856
 21
41.5710747721
  0
LINE
  5
556
100
AcDbEntity
  8
SLD-0
100
AcDbLine
 62
7
  6
CONTINUOUS
 10
245.3666690812
 20
63.6807681814
 11
245.8112351506
 21
62.8534107383
  0
LINE
  5
557
100
AcDbEntity
  8
SLD-0
100
AcDbLine
 62
7
  6
CONTINUOUS
 10
235.7419514823
 20
73.375657218
 11
235.8145446142
 21
73.222520965
  0
LINE
  5
558
100
AcDbEntity
  8
SLD-0
100
AcDbLine
 62
7
  6
CONTINUOUS
 10
240.2770634977
 20
67.2468534
 11
240.1813643319
 21
67.450224523
  0
LINE
  5
559
100
AcDbEntity
  8
SLD-0
100
AcDbLine
 62
7
  6
CONTINUOUS
 10
238.983950753
 20
65.778566975
 11
238.8883809448
 21
65.9819495412
  0
LINE
  5
55A
100
AcDbEntity
  8
SLD-0
100
AcDbLine
 62
7
  6
CONTINUOUS
 10
245.8112351506
 20
62.8534107383
 11
246.197145165
 21
61.9845163326
  0
LINE
  5
55B
100
AcDbEntity
  8
SLD-0
100
AcDbLine
 62
7
  6
CONTINUOUS
 10
235.9014078328
 20
69.755536615
 11
235.7982868574
 21
70.0341460739
  0
LINE
  5
55C
100
AcDbEntity
  8
SLD-0
100
AcDbLine
 62
7
  6
CONTINUOUS
 10
237.7059770548
 20
56.5180002274
 11
237.5547134852
 21
56.9380341762
  0
LINE
  5
55D
100
AcDbEntity
  8
SLD-0
100
AcDbLine
 62
7
  6
CONTINUOUS
 10
237.0235875866
 20
69.3616335535
 11
236.9307345656
 21
69.6556905873
  0
LINE
  5
55E
100
AcDbEntity
  8
SLD-0
100
AcDbLine
 62
7
  6
CONTINUOUS
 10
233.1351435461
 20
46.7099586046
 11
233.1978935123
 21
46.4876795513
  0
LINE
  5
55F
100
AcDbEntity
  8
SLD-0
100
AcDbLine
 62
7
  6
CONTINUOUS
 10
234.6697542097
 20
48.436016647
 11
234.732504176
 21
48.2137375936
  0
LINE
  5
560
100
AcDbEntity
  8
SLD-0
100
AcDbLine
 62
7
  6
CONTINUOUS
 10
234.5777955065
 20
61.7423453403
 11
234.6405454728
 21
61.520066287
  0
LINE
  5
561
100
AcDbEntity
  8
SLD-0
100
AcDbLine
 62
7
  6
CONTINUOUS
 10
235.952019018
 20
63.3729407912
 11
236.0147689842
 21
63.1506617379
  0
LINE
  5
562
100
AcDbEntity
  8
SLD-0
100
AcDbLine
 62
7
  6
CONTINUOUS
 10
232.6580620693
 20
54.4439274301
 11
232.7773605629
 21
54.0076896737
  0
LINE
  5
563
100
AcDbEntity
  8
SLD-0
100
AcDbLine
 62
7
  6
CONTINUOUS
 10
231.31287059
 20
72.8513344615
 11
231.3142737164
 21
72.8461025203
  0
LINE
  5
564
100
AcDbEntity
  8
SLD-0
100
AcDbLine
 62
7
  6
CONTINUOUS
 10
227.2951247146
 20
70.8887818926
 11
227.2613288196
 21
71.1234120761
  0
LINE
  5
565
100
AcDbEntity
  8
SLD-0
100
AcDbLine
 62
7
  6
CONTINUOUS
 10
227.903690106
 20
71.3311567014
 11
227.9374860009
 21
71.096526518
  0
LINE
  5
566
100
AcDbEntity
  8
SLD-0
100
AcDbLine
 62
7
  6
CONTINUOUS
 10
222.6592296589
 20
50.9797106045
 11
222.5252025411
 21
51.9664099723
  0
LINE
  5
567
100
AcDbEntity
  8
SLD-0
100
AcDbLine
 62
7
  6
CONTINUOUS
 10
226.5213363869
 20
60.3253727869
 11
226.4931631769
 21
60.5605972627
  0
LINE
  5
568
100
AcDbEntity
  8
SLD-0
100
AcDbLine
 62
7
  6
CONTINUOUS
 10
227.4003852071
 20
58.9111174588
 11
227.3723369868
 21
59.1462075988
  0
LINE
  5
569
100
AcDbEntity
  8
SLD-0
100
AcDbLine
 62
7
  6
CONTINUOUS
 10
228.7084496239
 20
56.6973529525
 11
228.6804014036
 21
56.9324430925
  0
LINE
  5
56A
100
AcDbEntity
  8
SLD-0
100
AcDbLine
 62
7
  6
CONTINUOUS
 10
226.9825076242
 20
64.8466291623
 11
227.2591147852
 21
76.3754355422
  0
LINE
  5
56B
100
AcDbEntity
  8
SLD-0
100
AcDbLine
 62
7
  6
CONTINUOUS
 10
231.156228165
 20
65.2158452423
 11
231.2381841456
 21
68.6316902156
  0
LINE
  5
56C
100
AcDbEntity
  8
SLD-0
100
AcDbLine
 62
7
  6
CONTINUOUS
 10
223.2104786437
 20
66.1587225576
 11
223.1149630414
 21
62.9708298633
  0
LINE
  5
56D
100
AcDbEntity
  8
SLD-0
100
AcDbLine
 62
7
  6
CONTINUOUS
 10
223.6777839051
 20
66.2001569896
 11
223.8652859069
 21
72.4581530378
  0
LINE
  5
56E
100
AcDbEntity
  8
SLD-0
100
AcDbLine
 62
7
  6
CONTINUOUS
 10
223.8559702917
 20
62.6830982586
 11
223.951485894
 21
65.8709909529
  0
LINE
  5
56F
100
AcDbEntity
  8
SLD-0
100
AcDbLine
 62
7
  6
CONTINUOUS
 10
224.3193108385
 20
66.1443929887
 11
224.3914454723
 21
68.5519313025
  0
LINE
  5
570
100
AcDbEntity
  8
SLD-0
100
AcDbLine
 62
7
  6
CONTINUOUS
 10
224.385063945
 20
65.611291553
 11
224.3104396508
 21
63.1206592737
  0
LINE
  5
571
100
AcDbEntity
  8
SLD-0
100
AcDbLine
 62
7
  6
CONTINUOUS
 10
224.7822842222
 20
63.4990274242
 11
224.8402758378
 21
65.4345337029
  0
LINE
  5
572
100
AcDbEntity
  8
SLD-0
100
AcDbLine
 62
7
  6
CONTINUOUS
 10
225.1290889444
 20
66.2160276597
 11
225.2012235782
 21
68.6235659736
  0
LINE
  5
573
100
AcDbEntity
  8
SLD-0
100
AcDbLine
 62
7
  6
CONTINUOUS
 10
225.2316407801
 20
60.3318139887
 11
225.2244032937
 21
60.0902583734
  0
LINE
  5
574
100
AcDbEntity
  8
SLD-0
100
AcDbLine
 62
7
  6
CONTINUOUS
 10
226.0988348991
 20
64.945837785
 11
226.0242106049
 21
62.4552055058
  0
LINE
  5
575
100
AcDbEntity
  8
SLD-0
100
AcDbLine
 62
7
  6
CONTINUOUS
 10
226.120468723
 20
65.0287793419
 11
226.0249531207
 21
61.8408866476
  0
LINE
  5
576
100
AcDbEntity
  8
SLD-0
100
AcDbLine
 62
7
  6
CONTINUOUS
 10
226.11081459
 20
58.9174243248
 11
226.1035771036
 21
58.6758687096
  0
LINE
  5
577
100
AcDbEntity
  8
SLD-0
100
AcDbLine
 62
7
  6
CONTINUOUS
 10
226.3841365973
 20
66.4395409013
 11
226.4595339966
 21
68.9559760435
  0
LINE
  5
578
100
AcDbEntity
  8
SLD-0
100
AcDbLine
 62
7
  6
CONTINUOUS
 10
226.7659604431
 20
61.5531550148
 11
226.8614760454
 21
64.7410477091
  0
LINE
  5
579
100
AcDbEntity
  8
SLD-0
100
AcDbLine
 62
7
  6
CONTINUOUS
 10
227.2613288196
 20
71.1234120761
 11
227.2683086043
 21
71.356366737
  0
LINE
  5
57A
100
AcDbEntity
  8
SLD-0
100
AcDbLine
 62
7
  6
CONTINUOUS
 10
227.4188833746
 20
56.7038055974
 11
227.4116458882
 21
56.4622499822
  0
LINE
  5
57B
100
AcDbEntity
  8
SLD-0
100
AcDbLine
 62
7
  6
CONTINUOUS
 10
227.9374860009
 20
71.096526518
 11
227.9305062162
 21
70.8635718571
  0
LINE
  5
57C
100
AcDbEntity
  8
SLD-0
100
AcDbLine
 62
7
  6
CONTINUOUS
 10
228.6593229476
 20
54.6271250752
 11
228.6520854612
 21
54.3855694599
  0
LINE
  5
57D
100
AcDbEntity
  8
SLD-0
100
AcDbLine
 62
7
  6
CONTINUOUS
 10
229.4120083557
 20
72.8289096859
 11
229.4132662893
 21
72.8708940052
  0
LINE
  5
57E
100
AcDbEntity
  8
SLD-0
100
AcDbLine
 62
7
  6
CONTINUOUS
 10
230.5524117173
 20
82.737262758
 11
230.4957697596
 21
80.8468021553
  0
LINE
  5
57F
100
AcDbEntity
  8
SLD-0
100
AcDbLine
 62
7
  6
CONTINUOUS
 10
230.2914182314
 20
72.4595638669
 11
230.293501684
 21
72.5291003958
  0
LINE
  5
580
100
AcDbEntity
  8
SLD-0
100
AcDbLine
 62
7
  6
CONTINUOUS
 10
230.3563482813
 20
72.5046971902
 11
230.3542036791
 21
72.4331197569
  0
LINE
  5
581
100
AcDbEntity
  8
SLD-0
100
AcDbLine
 62
7
  6
CONTINUOUS
 10
230.7442076856
 20
82.9664159764
 11
230.7378306608
 21
82.7535788018
  0
LINE
  5
582
100
AcDbEntity
  8
SLD-0
100
AcDbLine
 62
7
  6
CONTINUOUS
 10
230.750700123
 20
82.7763354219
 11
230.7500536849
 21
82.7547601467
  0
LINE
  5
583
100
AcDbEntity
  8
SLD-0
100
AcDbLine
 62
7
  6
CONTINUOUS
 10
230.6844402142
 20
80.5648697107
 11
230.6190713417
 21
78.3831428924
  0
LINE
  5
584
100
AcDbEntity
  8
SLD-0
100
AcDbLine
 62
7
  6
CONTINUOUS
 10
230.7161448089
 20
77.7795029746
 11
230.6722962113
 21
76.316028731
  0
LINE
  5
585
100
AcDbEntity
  8
SLD-0
100
AcDbLine
 62
7
  6
CONTINUOUS
 10
231.0393451052
 20
80.6357329567
 11
231.0959870629
 21
82.5261935594
  0
LINE
  5
586
100
AcDbEntity
  8
SLD-0
100
AcDbLine
 62
7
  6
CONTINUOUS
 10
230.0184925583
 20
43.4704270096
 11
230.0112550719
 21
43.2288713943
  0
LINE
  5
587
100
AcDbEntity
  8
SLD-0
100
AcDbLine
 62
7
  6
CONTINUOUS
 10
231.0930962398
 20
76.3532535848
 11
231.1369448374
 21
77.8167278284
  0
LINE
  5
588
100
AcDbEntity
  8
SLD-0
100
AcDbLine
 62
7
  6
CONTINUOUS
 10
231.1494934829
 20
77.7051397304
 11
231.1171147944
 21
76.6244808433
  0
LINE
  5
589
100
AcDbEntity
  8
SLD-0
100
AcDbLine
 62
7
  6
CONTINUOUS
 10
231.3517268896
 20
82.5488168413
 11
231.2835309594
 21
80.2707586618
  0
LINE
  5
58A
100
AcDbEntity
  8
SLD-0
100
AcDbLine
 62
7
  6
CONTINUOUS
 10
231.0671365936
 20
70.4438959898
 11
231.1161741676
 21
72.0805555507
  0
LINE
  5
58B
100
AcDbEntity
  8
SLD-0
100
AcDbLine
 62
7
  6
CONTINUOUS
 10
231.2365836759
 20
72.1629035809
 11
231.1940323225
 21
70.7427256666
  0
LINE
  5
58C
100
AcDbEntity
  8
SLD-0
100
AcDbLine
 62
7
  6
CONTINUOUS
 10
231.4267441618
 20
76.6519358166
 11
231.31287059
 21
72.8513344615
  0
LINE
  5
58D
100
AcDbEntity
  8
SLD-0
100
AcDbLine
 62
7
  6
CONTINUOUS
 10
231.9490191201
 20
82.4985901524
 11
231.8844757665
 21
80.3444155436
  0
LINE
  5
58E
100
AcDbEntity
  8
SLD-0
100
AcDbLine
 62
7
  6
CONTINUOUS
 10
231.6956679203
 20
72.8398546816
 11
231.8108998857
 21
76.6857932705
  0
LINE
  5
58F
100
AcDbEntity
  8
SLD-0
100
AcDbLine
 62
7
  6
CONTINUOUS
 10
228.6354731845
 20
75.1328238908
 11
227.5802738072
 21
61.6843388978
  0
LINE
  5
590
100
AcDbEntity
  8
SLD-0
100
AcDbLine
 62
7
  6
CONTINUOUS
 10
228.0010738357
 20
61.7215637516
 11
229.056273213
 21
75.1700487446
  0
LINE
  5
591
100
AcDbEntity
  8
SLD-0
100
AcDbLine
 62
7
  6
CONTINUOUS
 10
226.4788847562
 20
60.0840460821
 11
226.5213363869
 21
60.3253727869
  0
LINE
  5
592
100
AcDbEntity
  8
SLD-0
100
AcDbLine
 62
7
  6
CONTINUOUS
 10
227.2683086043
 20
71.356366737
 11
227.3152254463
 21
71.5596563292
  0
LINE
  5
593
100
AcDbEntity
  8
SLD-0
100
AcDbLine
 62
7
  6
CONTINUOUS
 10
227.9305062162
 20
70.8635718571
 11
227.8835893742
 21
70.6602822649
  0
LINE
  5
594
100
AcDbEntity
  8
SLD-0
100
AcDbLine
 62
7
  6
CONTINUOUS
 10
230.7740640183
 20
82.8218434327
 11
230.7545975287
 21
82.7551485393
  0
LINE
  5
595
100
AcDbEntity
  8
SLD-0
100
AcDbLine
 62
7
  6
CONTINUOUS
 10
227.2591147852
 20
76.3754355422
 11
228.0603943275
 21
78.8107254727
  0
LINE
  5
596
100
AcDbEntity
  8
SLD-0
100
AcDbLine
 62
7
  6
CONTINUOUS
 10
231.8844757665
 20
80.3444155436
 11
231.991751237
 21
80.5695427991
  0
LINE
  5
597
100
AcDbEntity
  8
SLD-0
100
AcDbLine
 62
7
  6
CONTINUOUS
 10
232.8338083368
 20
80.4224014848
 11
232.9440813353
 21
80.6537879186
  0
LINE
  5
598
100
AcDbEntity
  8
SLD-0
100
AcDbLine
 62
7
  6
CONTINUOUS
 10
227.3152254463
 20
71.5596563292
 11
227.3964167342
 21
71.7086392006
  0
LINE
  5
599
100
AcDbEntity
  8
SLD-0
100
AcDbLine
 62
7
  6
CONTINUOUS
 10
227.8835893742
 20
70.6602822649
 11
227.8023980864
 21
70.5112993935
  0
LINE
  5
59A
100
AcDbEntity
  8
SLD-0
100
AcDbLine
 62
7
  6
CONTINUOUS
 10
233.3240577099
 20
80.8378434295
 11
233.0020716667
 21
80.3438130842
  0
LINE
  5
59B
100
AcDbEntity
  8
SLD-0
100
AcDbLine
 62
7
  6
CONTINUOUS
 10
231.6889635209
 20
72.8299384684
 11
231.6956679203
 21
72.8398546816
  0
LINE
  5
59C
100
AcDbEntity
  8
SLD-0
100
AcDbLine
 62
7
  6
CONTINUOUS
 10
226.3245230388
 20
59.3543328595
 11
226.1872533206
 21
59.1520163024
  0
LINE
  5
59D
100
AcDbEntity
  8
SLD-0
100
AcDbLine
 62
7
  6
CONTINUOUS
 10
232.900498901
 20
78.253374089
 11
232.9415474053
 21
78.3138472677
  0
LINE
  5
59E
100
AcDbEntity
  8
SLD-0
100
AcDbLine
 62
7
  6
CONTINUOUS
 10
225.4454742186
 20
60.7685881876
 11
225.3080795106
 21
60.5664059662
  0
LINE
  5
59F
100
AcDbEntity
  8
SLD-0
100
AcDbLine
 62
7
  6
CONTINUOUS
 10
236.0217282172
 20
71.2480207658
 11
236.2211684826
 21
71.4929121473
  0
LINE
  5
5A0
100
AcDbEntity
  8
SLD-0
100
AcDbLine
 62
7
  6
CONTINUOUS
 10
226.2079995824
 20
59.6851157542
 11
226.3705871052
 21
59.8626289724
  0
LINE
  5
5A1
100
AcDbEntity
  8
SLD-0
100
AcDbLine
 62
7
  6
CONTINUOUS
 10
227.0870440348
 20
58.2707146472
 11
227.2496315576
 21
58.4482278654
  0
LINE
  5
5A2
100
AcDbEntity
  8
SLD-0
100
AcDbLine
 62
7
  6
CONTINUOUS
 10
228.3951128194
 20
56.0570959197
 11
228.5577003422
 21
56.234609138
  0
LINE
  5
5A3
100
AcDbEntity
  8
SLD-0
100
AcDbLine
 62
7
  6
CONTINUOUS
 10
234.5824358277
 20
70.7228546606
 11
234.462456632
 21
70.5935047768
  0
LINE
  5
5A4
100
AcDbEntity
  8
SLD-0
100
AcDbLine
 62
7
  6
CONTINUOUS
 10
229.018414182
 20
68.2357893493
 11
231.0671365936
 21
70.4438959898
  0
LINE
  5
5A5
100
AcDbEntity
  8
SLD-0
100
AcDbLine
 62
7
  6
CONTINUOUS
 10
229.8281922878
 20
68.3074240203
 11
231.8769146995
 21
70.5155306608
  0
LINE
  5
5A6
100
AcDbEntity
  8
SLD-0
100
AcDbLine
 62
7
  6
CONTINUOUS
 10
233.7725283643
 20
70.6512085463
 11
231.7238059526
 21
68.4431019059
  0
LINE
  5
5A7
100
AcDbEntity
  8
SLD-0
100
AcDbLine
 62
7
  6
CONTINUOUS
 10
233.7669861402
 20
69.8712707459
 11
234.4347741216
 21
70.5910559239
  0
LINE
  5
5A8
100
AcDbEntity
  8
SLD-0
100
AcDbLine
 62
7
  6
CONTINUOUS
 10
233.7856815658
 20
69.8640839991
 11
232.533713416
 21
68.5147480201
  0
LINE
  5
5A9
100
AcDbEntity
  8
SLD-0
100
AcDbLine
 62
7
  6
CONTINUOUS
 10
238.9651417242
 20
69.2673192336
 11
238.7434482605
 21
69.0332538273
  0
LINE
  5
5AA
100
AcDbEntity
  8
SLD-0
100
AcDbLine
 62
7
  6
CONTINUOUS
 10
237.2324046265
 20
70.8926241217
 11
237.4542230798
 21
71.1265551923
  0
LINE
  5
5AB
100
AcDbEntity
  8
SLD-0
100
AcDbLine
 62
7
  6
CONTINUOUS
 10
249.6209409217
 20
72.6623596227
 11
249.7780384681
 21
72.8061733428
  0
LINE
  5
5AC
100
AcDbEntity
  8
SLD-0
100
AcDbLine
 62
7
  6
CONTINUOUS
 10
249.4308150528
 20
72.6652617334
 11
249.5887118957
 21
72.8074082933
  0
LINE
  5
5AD
100
AcDbEntity
  8
SLD-0
100
AcDbLine
 62
7
  6
CONTINUOUS
 10
233.9818317032
 20
57.7965955591
 11
233.6287940181
 21
57.4976975125
  0
LINE
  5
5AE
100
AcDbEntity
  8
SLD-0
100
AcDbLine
 62
7
  6
CONTINUOUS
 10
231.5533373422
 20
55.4825889396
 11
231.4094165783
 21
55.3640116669
  0
LINE
  5
5AF
100
AcDbEntity
  8
SLD-0
100
AcDbLine
 62
7
  6
CONTINUOUS
 10
231.8585719393
 20
54.6080117421
 11
232.0024927032
 21
54.7265890147
  0
LINE
  5
5B0
100
AcDbEntity
  8
SLD-0
100
AcDbLine
 62
7
  6
CONTINUOUS
 10
238.8092883508
 20
56.401002131
 11
238.9532091147
 21
56.5195794037
  0
LINE
  5
5B1
100
AcDbEntity
  8
SLD-0
100
AcDbLine
 62
7
  6
CONTINUOUS
 10
234.7756382027
 20
59.7163553371
 11
234.6315880813
 21
59.5977666212
  0
LINE
  5
5B2
100
AcDbEntity
  8
SLD-0
100
AcDbLine
 62
7
  6
CONTINUOUS
 10
232.0192801131
 20
53.3965695519
 11
231.8752299917
 21
53.277980836
  0
LINE
  5
5B3
100
AcDbEntity
  8
SLD-0
100
AcDbLine
 62
7
  6
CONTINUOUS
 10
232.6431093519
 20
57.114046471
 11
232.7870257479
 21
57.2324779648
  0
LINE
  5
5B4
100
AcDbEntity
  8
SLD-0
100
AcDbLine
 62
7
  6
CONTINUOUS
 10
238.5040493858
 20
57.2754335497
 11
238.3601329898
 21
57.1570020559
  0
LINE
  5
5B5
100
AcDbEntity
  8
SLD-0
100
AcDbLine
 62
7
  6
CONTINUOUS
 10
232.3379997444
 20
57.9884893329
 11
232.1939539909
 21
57.8700463959
  0
LINE
  5
5B6
100
AcDbEntity
  8
SLD-0
100
AcDbLine
 62
7
  6
CONTINUOUS
 10
235.0807478102
 20
58.8419124753
 11
235.2247935637
 21
58.9603554123
  0
LINE
  5
5B7
100
AcDbEntity
  8
SLD-0
100
AcDbLine
 62
7
  6
CONTINUOUS
 10
237.2625333713
 20
59.2214563829
 11
237.1184876178
 21
59.1030134458
  0
LINE
  5
5B8
100
AcDbEntity
  8
SLD-0
100
AcDbLine
 62
7
  6
CONTINUOUS
 10
237.5676429788
 20
58.347013521
 11
237.7116887324
 21
58.465456458
  0
LINE
  5
5B9
100
AcDbEntity
  8
SLD-0
100
AcDbLine
 62
7
  6
CONTINUOUS
 10
232.3243897206
 20
52.52212669
 11
232.4684354741
 21
52.6405696271
  0
LINE
  5
5BA
100
AcDbEntity
  8
SLD-0
100
AcDbLine
 62
7
  6
CONTINUOUS
 10
238.1196422992
 20
66.1346511215
 11
237.9362617947
 21
65.9865579
  0
LINE
  5
5BB
100
AcDbEntity
  8
SLD-0
100
AcDbLine
 62
7
  6
CONTINUOUS
 10
239.4127550439
 20
67.6029375466
 11
239.2293789072
 21
67.4549901039
  0
LINE
  5
5BC
100
AcDbEntity
  8
SLD-0
100
AcDbLine
 62
7
  6
CONTINUOUS
 10
236.3564704474
 20
64.1993638271
 11
236.1730943107
 21
64.0514163844
  0
LINE
  5
5BD
100
AcDbEntity
  8
SLD-0
100
AcDbLine
 62
7
  6
CONTINUOUS
 10
227.8159635923
 20
57.2885157959
 11
227.6325874556
 21
57.1405683532
  0
LINE
  5
5BE
100
AcDbEntity
  8
SLD-0
100
AcDbLine
 62
7
  6
CONTINUOUS
 10
234.9822469359
 20
62.5687683762
 11
234.7988707992
 21
62.4208209335
  0
LINE
  5
5BF
100
AcDbEntity
  8
SLD-0
100
AcDbLine
 62
7
  6
CONTINUOUS
 10
229.0565368906
 20
55.2119924958
 11
228.8731607539
 21
55.0640450531
  0
LINE
  5
5C0
100
AcDbEntity
  8
SLD-0
100
AcDbLine
 62
7
  6
CONTINUOUS
 10
236.24482994
 20
52.8173227237
 11
236.6148830318
 21
53.0855942465
  0
LINE
  5
5C1
100
AcDbEntity
  8
SLD-0
100
AcDbLine
 62
7
  6
CONTINUOUS
 10
241.4146904951
 20
54.8018622573
 11
241.613834832
 21
54.9163103882
  0
LINE
  5
5C2
100
AcDbEntity
  8
SLD-0
100
AcDbLine
 62
7
  6
CONTINUOUS
 10
232.3237073853
 20
44.3783416356
 11
232.5228517222
 21
44.4927897664
  0
LINE
  5
5C3
100
AcDbEntity
  8
SLD-0
100
AcDbLine
 62
7
  6
CONTINUOUS
 10
243.5704390765
 20
50.6222111532
 11
243.7695834134
 21
50.736659284
  0
LINE
  5
5C4
100
AcDbEntity
  8
SLD-0
100
AcDbLine
 62
7
  6
CONTINUOUS
 10
244.4711841454
 20
48.9933856886
 11
244.6703284822
 21
49.1078338195
  0
LINE
  5
5C5
100
AcDbEntity
  8
SLD-0
100
AcDbLine
 62
7
  6
CONTINUOUS
 10
235.4540768041
 20
47.9164144537
 11
235.6533504985
 21
48.0308740278
  0
LINE
  5
5C6
100
AcDbEntity
  8
SLD-0
100
AcDbLine
 62
7
  6
CONTINUOUS
 10
242.3381981907
 20
53.0629528052
 11
242.5373381598
 21
53.1772551572
  0
LINE
  5
5C7
100
AcDbEntity
  8
SLD-0
100
AcDbLine
 62
7
  6
CONTINUOUS
 10
233.9195998658
 20
46.1905136334
 11
234.1187398348
 21
46.3048159854
  0
LINE
  5
5C8
100
AcDbEntity
  8
SLD-0
100
AcDbLine
 62
7
  6
CONTINUOUS
 10
230.7955776663
 20
42.709269201
 11
230.9948469928
 21
42.8235829962
  0
LINE
  5
5C9
100
AcDbEntity
  8
SLD-0
100
AcDbLine
 62
7
  6
CONTINUOUS
 10
239.2744088516
 20
42.6787120744
 11
238.4197119927
 21
42.2403495095
  0
LINE
  5
5CA
100
AcDbEntity
  8
SLD-0
100
AcDbLine
 62
7
  6
CONTINUOUS
 10
238.4197119927
 20
42.2403495095
 11
237.5459101593
 21
41.8705214557
  0
LINE
  5
5CB
100
AcDbEntity
  8
0
100
AcDbLine
 62
7
  6
CONTINUOUS
 10
0.0
 20
198.12
 11
261.62
 21
198.12
  0
LINE
  5
5CC
100
AcDbEntity
  8
SLD-0
100
AcDbLine
 62
7
  6
CONTINUOUS
 10
0.0
 20
198.12
 11
261.62
 21
198.12
  0
LINE
  5
5CD
100
AcDbEntity
  8
SLD-0
100
AcDbLine
 62
7
  6
CONTINUOUS
 10
249.8621868212
 20
73.1064068714
 11
249.7883267882
 21
73.2595416795
  0
LINE
  5
5CE
100
AcDbEntity
  8
SLD-0
100
AcDbLine
 62
7
  6
CONTINUOUS
 10
249.6762195192
 20
73.1044255765
 11
249.6046466119
 21
73.2559939008
  0
LINE
  5
5CF
100
AcDbEntity
  8
SLD-0
100
AcDbLine
 62
7
  6
CONTINUOUS
 10
246.197145165
 20
61.9845163326
 11
246.5223485527
 21
61.0788469113
  0
LINE
  5
5D0
100
AcDbEntity
  8
SLD-0
100
AcDbLine
 62
7
  6
CONTINUOUS
 10
239.1739587641
 20
70.7983098017
 11
239.2669411425
 21
70.5042642112
  0
LINE
  5
5D1
100
AcDbEntity
  8
SLD-0
100
AcDbLine
 62
7
  6
CONTINUOUS
 10
237.7151908698
 20
65.3082280857
 11
237.7779408361
 21
65.0859490324
  0
LINE
  5
5D2
100
AcDbEntity
  8
SLD-0
100
AcDbLine
 62
7
  6
CONTINUOUS
 10
240.6303679008
 20
55.3214644506
 11
240.693117867
 21
55.0991853973
  0
LINE
  5
5D3
100
AcDbEntity
  8
SLD-0
100
AcDbLine
 62
7
  6
CONTINUOUS
 10
241.5538712286
 20
53.5824092196
 11
241.6166211948
 21
53.3601301663
  0
LINE
  5
5D4
100
AcDbEntity
  8
SLD-0
100
AcDbLine
 62
7
  6
CONTINUOUS
 10
242.7859871246
 20
51.1418019032
 11
242.8487370909
 21
50.9195228499
  0
LINE
  5
5D5
100
AcDbEntity
  8
SLD-0
100
AcDbLine
 62
7
  6
CONTINUOUS
 10
243.686861551
 20
49.5129878819
 11
243.7496115173
 21
49.2907088286
  0
LINE
  5
5D6
100
AcDbEntity
  8
SLD-0
100
AcDbLine
 62
7
  6
CONTINUOUS
 10
239.0083036145
 20
66.7765145107
 11
239.0710535807
 21
66.5542354574
  0
LINE
  5
5D7
100
AcDbEntity
  8
SLD-0
100
AcDbLine
 62
7
  6
CONTINUOUS
 10
246.5223485527
 20
61.0788469113
 11
246.7851828144
 21
60.1411987512
  0
LINE
  5
5D8
100
AcDbEntity
  8
SLD-0
100
AcDbLine
 62
7
  6
CONTINUOUS
 10
231.5300518787
 20
82.7629587555
 11
231.5331644869
 21
82.7513891558
  0
LINE
  5
5D9
100
AcDbEntity
  8
SLD-0
100
AcDbLine
 62
7
  6
CONTINUOUS
 10
237.7924879583
 20
56.0682483595
 11
237.7059770548
 21
56.5180002274
  0
LINE
  5
5DA
100
AcDbEntity
  8
SLD-0
100
AcDbLine
 62
7
  6
CONTINUOUS
 10
232.1400159995
 20
55.083771016
 11
232.1125087607
 21
55.2680216375
  0
LINE
  5
5DB
100
AcDbEntity
  8
SLD-0
100
AcDbLine
 62
7
  6
CONTINUOUS
 10
232.6059587704
 20
52.9977516283
 11
232.5784515316
 21
53.1820022499
  0
LINE
  5
5DC
100
AcDbEntity
  8
SLD-0
100
AcDbLine
 62
7
  6
CONTINUOUS
 10
232.0564306946
 20
57.5128643946
 11
232.0839379334
 21
57.328613773
  0
LINE
  5
5DD
100
AcDbEntity
  8
SLD-0
100
AcDbLine
 62
7
  6
CONTINUOUS
 10
233.5066815804
 20
51.5016675469
 11
233.5341888192
 21
51.3174169254
  0
LINE
  5
5DE
100
AcDbEntity
  8
SLD-0
100
AcDbLine
 62
7
  6
CONTINUOUS
 10
237.8492120286
 20
58.8226384593
 11
237.8217047899
 21
59.0068890808
  0
LINE
  5
5DF
100
AcDbEntity
  8
SLD-0
100
AcDbLine
 62
7
  6
CONTINUOUS
 10
238.2226096935
 20
56.7998200546
 11
238.2501169323
 21
56.6155694331
  0
LINE
  5
5E0
100
AcDbEntity
  8
SLD-0
100
AcDbLine
 62
7
  6
CONTINUOUS
 10
238.7214616226
 20
53.7539227471
 11
238.6939543839
 21
53.9381733686
  0
LINE
  5
5E1
100
AcDbEntity
  8
SLD-0
100
AcDbLine
 62
7
  6
CONTINUOUS
 10
231.7378404208
 20
52.9209560569
 11
231.765218302
 21
52.7366939921
  0
LINE
  5
5E2
100
AcDbEntity
  8
SLD-0
100
AcDbLine
 62
7
  6
CONTINUOUS
 10
232.9245490442
 20
57.589659966
 11
232.897171163
 21
57.7739220308
  0
LINE
  5
5E3
100
AcDbEntity
  8
SLD-0
100
AcDbLine
 62
7
  6
CONTINUOUS
 10
234.37479993
 20
51.5784631184
 11
234.3474220488
 21
51.7627251832
  0
LINE
  5
5E4
100
AcDbEntity
  8
SLD-0
100
AcDbLine
 62
7
  6
CONTINUOUS
 10
235.3621875025
 20
59.3175259703
 11
235.3348096212
 21
59.5017880351
  0
LINE
  5
5E5
100
AcDbEntity
  8
SLD-0
100
AcDbLine
 62
7
  6
CONTINUOUS
 10
236.8677479246
 20
51.7764586934
 11
236.8403700434
 21
51.9607207582
  0
LINE
  5
5E6
100
AcDbEntity
  8
SLD-0
100
AcDbLine
 62
7
  6
CONTINUOUS
 10
236.981093679
 20
58.7458428878
 11
237.0084715603
 21
58.561580823
  0
LINE
  5
5E7
100
AcDbEntity
  8
SLD-0
100
AcDbLine
 62
7
  6
CONTINUOUS
 10
237.853343273
 20
53.6771271756
 11
237.8807211543
 21
53.4928651109
  0
LINE
  5
5E8
100
AcDbEntity
  8
SLD-0
100
AcDbLine
 62
7
  6
CONTINUOUS
 10
239.0907280431
 20
56.8766156261
 11
239.0633501619
 21
57.0608776908
  0
LINE
  5
5E9
100
AcDbEntity
  8
SLD-0
100
AcDbLine
 62
7
  6
CONTINUOUS
 10
231.2718976499
 20
55.0069754445
 11
231.2992711633
 21
54.8225676009
  0
LINE
  5
5EA
100
AcDbEntity
  8
SLD-0
100
AcDbLine
 62
7
  6
CONTINUOUS
 10
234.4941985104
 20
59.2407418421
 11
234.5215720238
 21
59.0563339984
  0
LINE
  5
5EB
100
AcDbEntity
  8
SLD-0
100
AcDbLine
 62
7
  6
CONTINUOUS
 10
235.9997589325
 20
51.6996745652
 11
236.027132446
 21
51.5152667215
  0
LINE
  5
5EC
100
AcDbEntity
  8
SLD-0
100
AcDbLine
 62
7
  6
CONTINUOUS
 10
235.7982868574
 20
70.0341460739
 11
235.7584082588
 21
70.3394319988
  0
LINE
  5
5ED
100
AcDbEntity
  8
SLD-0
100
AcDbLine
 62
7
  6
CONTINUOUS
 10
229.9490229223
 20
54.6208296524
 11
229.9208453444
 21
54.8559083492
  0
LINE
  5
5EE
100
AcDbEntity
  8
SLD-0
100
AcDbLine
 62
7
  6
CONTINUOUS
 10
231.3081881652
 20
43.4639858078
 11
231.2800105873
 21
43.6990645047
  0
LINE
  5
5EF
100
AcDbEntity
  8
SLD-0
100
AcDbLine
 62
7
  6
CONTINUOUS
 10
234.4320810071
 20
46.945218797
 11
234.4039034293
 21
47.1802974938
  0
LINE
  5
5F0
100
AcDbEntity
  8
SLD-0
100
AcDbLine
 62
7
  6
CONTINUOUS
 10
235.9666916708
 20
48.6712768394
 11
235.9385140929
 21
48.9063555362
  0
LINE
  5
5F1
100
AcDbEntity
  8
SLD-0
100
AcDbLine
 62
7
  6
CONTINUOUS
 10
235.8747329676
 20
61.9776055328
 11
235.8465553897
 21
62.2126842296
  0
LINE
  5
5F2
100
AcDbEntity
  8
SLD-0
100
AcDbLine
 62
7
  6
CONTINUOUS
 10
237.248956479
 20
63.6082009837
 11
237.2207789012
 21
63.8432796805
  0
LINE
  5
5F3
100
AcDbEntity
  8
SLD-0
100
AcDbLine
 62
7
  6
CONTINUOUS
 10
232.8361885267
 20
45.1330467991
 11
232.8081446742
 21
45.3682827181
  0
LINE
  5
5F4
100
AcDbEntity
  8
SLD-0
100
AcDbLine
 62
7
  6
CONTINUOUS
 10
232.604893819
 20
54.9041892692
 11
232.6580620693
 21
54.4439274301
  0
LINE
  5
5F5
100
AcDbEntity
  8
SLD-0
100
AcDbLine
 62
7
  6
CONTINUOUS
 10
236.9307345656
 20
69.6556905873
 11
236.9057065393
 21
69.9743578024
  0
LINE
  5
5F6
100
AcDbEntity
  8
SLD-0
100
AcDbLine
 62
7
  6
CONTINUOUS
 10
239.2669411425
 20
70.5042642112
 11
239.2919648011
 21
70.1854512172
  0
LINE
  5
5F7
100
AcDbEntity
  8
SLD-0
100
AcDbLine
 62
7
  6
CONTINUOUS
 10
237.8121421968
 20
55.6003692406
 11
237.7924879583
 21
56.0682483595
  0
LINE
  5
5F8
100
AcDbEntity
  8
SLD-0
100
AcDbLine
 62
7
  6
CONTINUOUS
 10
235.7668225656
 20
73.5045162652
 11
235.7717535336
 21
73.3541558695
  0
LWPOLYLINE
  5
5F9
100
AcDbEntity
  8
SLD-0
100
AcDbPolyline
 62
7
  6
CONTINUOUS
 90
56
 70
0
 10
234.5293063933
 20
103.5121732125
 10
234.5420171173
 20
102.6615834013
 10
234.5519042703
 20
101.8116414856
 10
234.5559626281
 20
101.0969879929
 10
234.5543150933
 20
100.3838749513
 10
234.5475585616
 20
99.8058592208
 10
234.5347670274
 20
99.2299423617
 10
234.5200528188
 20
98.788186305
 10
234.5003963544
 20
98.3486091347
 10
234.4784334615
 20
97.9631936498
 10
234.4517397935
 20
97.5803698367
 10
234.4186349344
 20
97.1863107451
 10
234.379554258
 20
96.7961853406
 10
234.3317541639
 20
96.3927655911
 10
234.276571232
 20
95.9951845688
 10
234.2137144421
 20
95.6042875221
 10
234.1421623199
 20
95.217471727
 10
234.0620430987
 20
94.8399196434
 10
233.9729051365
 20
94.4732234162
 10
233.8770987729
 20
94.127795941
 10
233.7726664895
 20
93.7946491404
 10
233.6599694239
 20
93.4742509781
 10
233.5422843082
 20
93.1732701848
 10
233.4183605667
 20
92.8826572512
 10
233.2895172491
 20
92.6001419706
 10
233.1597311083
 20
92.3291350384
 10
233.0273390883
 20
92.0621427994
 10
232.7733239569
 20
91.5609476614
 10
232.6614510861
 20
91.3372061864
 10
232.5508345968
 20
91.1094210696
 10
232.4476551135
 20
90.8877516241
 10
232.3472638984
 20
90.6601422905
 10
232.2261781454
 20
90.364108209
 10
232.112213614
 20
90.0562767455
 10
232.0245444465
 20
89.7930320613
 10
231.9432029612
 20
89.5209990626
 10
231.8688194665
 20
89.2402117046
 10
231.8164751426
 20
89.0169936186
 10
231.7691383329
 20
88.7885623639
 10
231.7272746695
 20
88.5549242615
 10
231.681678485
 20
88.2418477192
 10
231.6478305091
 20
87.920652362
 10
231.6289228904
 20
87.6386229026
 10
231.6184397439
 20
87.3528395935
 10
231.6150406998
 20
87.1064486666
 10
231.6157356787
 20
86.8590469044
 10
231.6209508943
 20
86.5429624637
 10
231.6290470006
 20
86.2263590146
 10
231.6414042546
 20
85.7714822775
 10
231.6487354109
 20
85.3177523119
 10
231.6468883743
 20
84.929585516
 10
231.6375769194
 20
84.543682289
 10
231.6219176907
 20
84.1602876806
 10
231.5956927123
 20
83.6921968115
 10
231.5641913832
 20
83.2268834152
 10
231.5300518787
 20
82.7629587555
  0
LINE
  5
5FA
100
AcDbEntity
  8
SLD-0
100
AcDbLine
 62
7
  6
CONTINUOUS
 10
232.0483931946
 20
82.4600034018
 11
231.991751237
 21
80.5695427991
  0
LINE
  5
5FB
100
AcDbEntity
  8
SLD-0
100
AcDbLine
 62
7
  6
CONTINUOUS
 10
231.8769146995
 20
70.5155306608
 11
231.8855542578
 21
70.8038812987
  0
LINE
  5
5FC
100
AcDbEntity
  8
SLD-0
100
AcDbLine
 62
7
  6
CONTINUOUS
 10
231.9448850095
 20
62.0704683003
 11
231.9431073046
 21
62.0111362934
  0
LINE
  5
5FD
100
AcDbEntity
  8
SLD-0
100
AcDbLine
 62
7
  6
CONTINUOUS
 10
231.5466222774
 20
45.1394994441
 11
231.539384791
 21
44.8979438288
  0
LINE
  5
5FE
100
AcDbEntity
  8
SLD-0
100
AcDbLine
 62
7
  6
CONTINUOUS
 10
232.9440813353
 20
80.6537879186
 11
233.000723293
 21
82.5442485213
  0
LINE
  5
5FF
100
AcDbEntity
  8
SLD-0
100
AcDbLine
 62
7
  6
CONTINUOUS
 10
233.0020716667
 20
80.3438130842
 11
233.0726994008
 21
82.7010576821
  0
LINE
  5
600
100
AcDbEntity
  8
SLD-0
100
AcDbLine
 62
7
  6
CONTINUOUS
 10
232.9415092023
 20
78.3135537394
 11
233.0023573757
 21
80.3443994099
  0
LINE
  5
601
100
AcDbEntity
  8
SLD-0
100
AcDbLine
 62
7
  6
CONTINUOUS
 10
233.3806996676
 20
82.7283040322
 11
233.3240577099
 21
80.8378434295
  0
LINE
  5
602
100
AcDbEntity
  8
SLD-0
100
AcDbLine
 62
7
  6
CONTINUOUS
 10
232.6190455728
 20
55.3765128621
 11
232.604893819
 21
54.9041892692
  0
LINE
  5
603
100
AcDbEntity
  8
SLD-0
100
AcDbLine
 62
7
  6
CONTINUOUS
 10
233.4532519744
 20
69.2521857205
 11
233.4611053242
 21
69.5142961588
  0
LINE
  5
604
100
AcDbEntity
  8
SLD-0
100
AcDbLine
 62
7
  6
CONTINUOUS
 10
233.8215659382
 20
72.2878681073
 11
233.7725283643
 21
70.6512085463
  0
LINE
  5
605
100
AcDbEntity
  8
SLD-0
100
AcDbLine
 62
7
  6
CONTINUOUS
 10
233.1423810325
 20
46.9515142198
 11
233.1351435461
 21
46.7099586046
  0
LINE
  5
606
100
AcDbEntity
  8
SLD-0
100
AcDbLine
 62
7
  6
CONTINUOUS
 10
234.4057761299
 20
69.6232298951
 11
234.4347741216
 21
70.5910559239
  0
LINE
  5
607
100
AcDbEntity
  8
SLD-0
100
AcDbLine
 62
7
  6
CONTINUOUS
 10
234.5446436602
 20
72.4555415109
 11
234.5417390564
 21
72.3585985513
  0
LINE
  5
608
100
AcDbEntity
  8
SLD-0
100
AcDbLine
 62
7
  6
CONTINUOUS
 10
234.6314734016
 20
72.3595142216
 11
234.5824358277
 21
70.7228546606
  0
LINE
  5
609
100
AcDbEntity
  8
SLD-0
100
AcDbLine
 62
7
  6
CONTINUOUS
 10
234.8460167522
 20
76.685244811
 11
234.8541015967
 21
76.9550815303
  0
LINE
  5
60A
100
AcDbEntity
  8
SLD-0
100
AcDbLine
 62
7
  6
CONTINUOUS
 10
234.8866462626
 20
78.041280015
 11
234.8898653498
 21
78.1487190545
  0
LINE
  5
60B
100
AcDbEntity
  8
SLD-0
100
AcDbLine
 62
7
  6
CONTINUOUS
 10
234.930962701
 20
76.9618618347
 11
234.9633413895
 21
78.0425207218
  0
LINE
  5
60C
100
AcDbEntity
  8
SLD-0
100
AcDbLine
 62
7
  6
CONTINUOUS
 10
234.5850329929
 20
61.9839009556
 11
234.5777955065
 21
61.7423453403
  0
LINE
  5
60D
100
AcDbEntity
  8
SLD-0
100
AcDbLine
 62
7
  6
CONTINUOUS
 10
235.2668167807
 20
76.7224696648
 11
235.3106653783
 21
78.1859439084
  0
LINE
  5
60E
100
AcDbEntity
  8
SLD-0
100
AcDbLine
 62
7
  6
CONTINUOUS
 10
234.6769916961
 20
48.6775722622
 11
234.6697542097
 21
48.436016647
  0
LINE
  5
60F
100
AcDbEntity
  8
SLD-0
100
AcDbLine
 62
7
  6
CONTINUOUS
 10
235.7345826142
 20
73.4516621211
 11
235.7224968417
 21
73.0482919417
  0
LINE
  5
610
100
AcDbEntity
  8
SLD-0
100
AcDbLine
 62
7
  6
CONTINUOUS
 10
235.9592565044
 20
63.6144964065
 11
235.952019018
 21
63.3729407912
  0
LINE
  5
611
100
AcDbEntity
  8
SLD-0
100
AcDbLine
 62
7
  6
CONTINUOUS
 10
237.7667916273
 20
71.6832910475
 11
237.7871151182
 21
72.3616002073
  0
LINE
  5
612
100
AcDbEntity
  8
SLD-0
100
AcDbLine
 62
7
  6
CONTINUOUS
 10
237.7224283562
 20
65.549783701
 11
237.7151908698
 21
65.3082280857
  0
LINE
  5
613
100
AcDbEntity
  8
SLD-0
100
AcDbLine
 62
7
  6
CONTINUOUS
 10
239.0155411009
 20
67.018070126
 11
239.0083036145
 21
66.7765145107
  0
LINE
  5
614
100
AcDbEntity
  8
SLD-0
100
AcDbLine
 62
7
  6
CONTINUOUS
 10
235.7465772325
 20
73.5273022321
 11
235.7419514823
 21
73.375657218
  0
LWPOLYLINE
  5
615
100
AcDbEntity
  8
SLD-0
100
AcDbPolyline
 62
7
  6
CONTINUOUS
 90
55
 70
0
 10
232.3171453103
 20
82.7377568444
 10
232.3518180208
 20
83.2322342816
 10
232.3837673395
 20
83.7280889522
 10
232.4073176863
 20
84.1637111021
 10
232.424823573
 20
84.6020721457
 10
232.4336189873
 20
84.9804754937
 10
232.4355568851
 20
85.36100125
 10
232.4288098303
 20
85.8174238583
 10
232.4172007515
 20
86.2749145434
 10
232.4096936313
 20
86.5898028104
 10
232.4049272438
 20
86.9040139812
 10
232.4044702432
 20
87.1503929415
 10
232.4082265318
 20
87.3953821617
 10
232.4195247803
 20
87.6783162452
 10
232.4397297769
 20
87.9564032079
 10
232.4752956001
 20
88.2682575243
 10
232.523092002
 20
88.5699524077
 10
232.566546249
 20
88.7912455798
 10
232.6156072912
 20
89.0062267473
 10
232.6697246793
 20
89.2149957178
 10
232.7429169962
 20
89.4649777616
 10
232.8222117222
 20
89.7062131535
 10
232.9068102948
 20
89.9393166242
 10
233.0156483467
 20
90.2127511506
 10
233.1298263004
 20
90.4771420567
 10
233.2276800639
 20
90.6910585036
 10
233.327857265
 20
90.9015195628
 10
233.5532890783
 20
91.3571938989
 10
233.8070320494
 20
91.8654904047
 10
233.9397843635
 20
92.139104132
 10
234.0702230088
 20
92.4184203504
 10
234.2034931382
 20
92.7195523857
 10
234.3315246123
 20
93.0306367798
 10
234.4526233195
 20
93.3533019095
 10
234.5683779455
 20
93.6982598939
 10
234.6748822668
 20
94.0559730853
 10
234.7720010897
 20
94.4252400171
 10
234.8608353954
 20
94.8100603156
 10
234.940449456
 20
95.2042574353
 10
235.011403116
 20
95.6065738688
 10
235.0727248073
 20
96.0054579633
 10
235.1265968065
 20
96.4101388341
 10
235.1732675354
 20
96.8198923509
 10
235.2062940667
 20
97.1584628676
 10
235.2349226964
 20
97.4995947842
 10
235.2586758413
 20
97.8315902303
 10
235.2788442793
 20
98.1653757556
 10
235.3104122349
 20
98.8621666056
 10
235.3239530905
 20
99.3019242994
 10
235.3334180705
 20
99.7431721445
 10
235.3403204762
 20
100.2808490017
 10
235.3429082177
 20
100.8198158991
 10
235.3413945992
 20
101.4549768952
 10
235.3360605459
 20
102.0910673759
 10
235.315594174
 20
103.5568172684
  0
LINE
  5
616
100
AcDbEntity
  8
SLD-0
100
AcDbLine
 62
7
  6
CONTINUOUS
 10
232.2590458531
 20
68.4904232801
 11
231.7539943481
 21
62.0535549778
  0
LINE
  5
617
100
AcDbEntity
  8
SLD-0
100
AcDbLine
 62
7
  6
CONTINUOUS
 10
232.8091937254
 20
75.5020399708
 11
232.6286171894
 21
73.200613535
  0
LINE
  5
618
100
AcDbEntity
  8
SLD-0
100
AcDbLine
 62
7
  6
CONTINUOUS
 10
232.1747943766
 20
62.0907798316
 11
232.6922418102
 21
68.6856471145
  0
LINE
  5
619
100
AcDbEntity
  8
SLD-0
100
AcDbLine
 62
7
  6
CONTINUOUS
 10
233.0340654012
 20
73.0422012738
 11
233.2299937539
 21
75.5392648246
  0
LINE
  5
61A
100
AcDbEntity
  8
SLD-0
100
AcDbLine
 62
7
  6
CONTINUOUS
 10
235.7584082588
 20
70.3394319988
 11
235.7838656231
 21
70.65515024
  0
LINE
  5
61B
100
AcDbEntity
  8
SLD-0
100
AcDbLine
 62
7
  6
CONTINUOUS
 10
236.9057065393
 20
69.9743578024
 11
236.9500185141
 21
70.2993043721
  0
LINE
  5
61C
100
AcDbEntity
  8
SLD-0
100
AcDbLine
 62
7
  6
CONTINUOUS
 10
232.7001548011
 20
55.8487985612
 11
232.6190455728
 21
55.3765128621
  0
LINE
  5
61D
100
AcDbEntity
  8
SLD-0
100
AcDbLine
 62
7
  6
CONTINUOUS
 10
227.3580629339
 20
58.6698021971
 11
227.4003852071
 21
58.9111174588
  0
LINE
  5
61E
100
AcDbEntity
  8
SLD-0
100
AcDbLine
 62
7
  6
CONTINUOUS
 10
228.6661273507
 20
56.4560376908
 11
228.7084496239
 21
56.6973529525
  0
LINE
  5
61F
100
AcDbEntity
  8
SLD-0
100
AcDbLine
 62
7
  6
CONTINUOUS
 10
232.7938662535
 20
44.8917315375
 11
232.8361885267
 21
45.1330467991
  0
LINE
  5
620
100
AcDbEntity
  8
SLD-0
100
AcDbLine
 62
7
  6
CONTINUOUS
 10
229.9065669237
 20
54.3793571686
 11
229.9490229223
 21
54.6208296524
  0
LINE
  5
621
100
AcDbEntity
  8
SLD-0
100
AcDbLine
 62
7
  6
CONTINUOUS
 10
231.2657365344
 20
43.222659103
 11
231.3081881652
 21
43.4639858078
  0
LINE
  5
622
100
AcDbEntity
  8
SLD-0
100
AcDbLine
 62
7
  6
CONTINUOUS
 10
235.8322813368
 20
61.7362788279
 11
235.8747329676
 21
61.9776055328
  0
LINE
  5
623
100
AcDbEntity
  8
SLD-0
100
AcDbLine
 62
7
  6
CONTINUOUS
 10
235.3235886782
 20
59.1272820752
 11
235.3621875025
 21
59.3175259703
  0
LINE
  5
624
100
AcDbEntity
  8
SLD-0
100
AcDbLine
 62
7
  6
CONTINUOUS
 10
231.3104921063
 20
55.1970735608
 11
231.2718976499
 21
55.0069754445
  0
LINE
  5
625
100
AcDbEntity
  8
SLD-0
100
AcDbLine
 62
7
  6
CONTINUOUS
 10
231.7764348772
 20
53.1110541731
 11
231.7378404208
 21
52.9209560569
  0
LINE
  5
626
100
AcDbEntity
  8
SLD-0
100
AcDbLine
 62
7
  6
CONTINUOUS
 10
232.8859545878
 20
57.3995618498
 11
232.9245490442
 21
57.589659966
  0
LINE
  5
627
100
AcDbEntity
  8
SLD-0
100
AcDbLine
 62
7
  6
CONTINUOUS
 10
234.5327929669
 20
59.4308399584
 11
234.4941985104
 21
59.2407418421
  0
LINE
  5
628
100
AcDbEntity
  8
SLD-0
100
AcDbLine
 62
7
  6
CONTINUOUS
 10
232.1012878176
 20
54.8935156776
 11
232.1400159995
 21
55.083771016
  0
LINE
  5
629
100
AcDbEntity
  8
SLD-0
100
AcDbLine
 62
7
  6
CONTINUOUS
 10
232.0951545086
 20
57.7029739541
 11
232.0564306946
 21
57.5128643946
  0
LINE
  5
62A
100
AcDbEntity
  8
SLD-0
100
AcDbLine
 62
7
  6
CONTINUOUS
 10
232.5672349564
 20
52.8076420688
 11
232.6059587704
 21
52.9977516283
  0
LINE
  5
62B
100
AcDbEntity
  8
SLD-0
100
AcDbLine
 62
7
  6
CONTINUOUS
 10
233.5454053944
 20
51.6917771064
 11
233.5066815804
 21
51.5016675469
  0
LINE
  5
62C
100
AcDbEntity
  8
SLD-0
100
AcDbLine
 62
7
  6
CONTINUOUS
 10
235.7838656231
 20
70.65515024
 11
235.8732249408
 21
70.9635814498
  0
LINE
  5
62D
100
AcDbEntity
  8
SLD-0
100
AcDbLine
 62
7
  6
CONTINUOUS
 10
232.8462979486
 20
56.3085178424
 11
232.7001548011
 21
55.8487985612
  0
LINE
  5
62E
100
AcDbEntity
  8
SLD-0
100
AcDbLine
 62
7
  6
CONTINUOUS
 10
225.3080795106
 20
60.5664059662
 11
225.2316407801
 21
60.3318139887
  0
LINE
  5
62F
100
AcDbEntity
  8
SLD-0
100
AcDbLine
 62
7
  6
CONTINUOUS
 10
226.1872533206
 20
59.1520163024
 11
226.11081459
 21
58.9174243248
  0
LINE
  5
630
100
AcDbEntity
  8
SLD-0
100
AcDbLine
 62
7
  6
CONTINUOUS
 10
227.4953221052
 20
56.938397575
 11
227.4188833746
 21
56.7038055974
  0
LINE
  5
631
100
AcDbEntity
  8
SLD-0
100
AcDbLine
 62
7
  6
CONTINUOUS
 10
228.7357616782
 20
54.8617170528
 11
228.6593229476
 21
54.6271250752
  0
LINE
  5
632
100
AcDbEntity
  8
SLD-0
100
AcDbLine
 62
7
  6
CONTINUOUS
 10
234.6614717235
 20
62.2184929332
 11
234.5850329929
 21
61.9839009556
  0
LINE
  5
633
100
AcDbEntity
  8
SLD-0
100
AcDbLine
 62
7
  6
CONTINUOUS
 10
236.9500185141
 20
70.2993043721
 11
237.0610329524
 21
70.6113959492
  0
LINE
  5
634
100
AcDbEntity
  8
SLD-0
100
AcDbLine
 62
7
  6
CONTINUOUS
 10
233.8019854049
 20
69.1826945226
 11
234.0135481185
 21
69.7755377893
  0
LINE
  5
635
100
AcDbEntity
  8
SLD-0
100
AcDbLine
 62
7
  6
CONTINUOUS
 10
233.0536416717
 20
56.7439909851
 11
232.8462979486
 21
56.3085178424
  0
LINE
  5
636
100
AcDbEntity
  8
SLD-0
100
AcDbLine
 62
7
  6
CONTINUOUS
 10
235.723979318
 20
61.5147159394
 11
235.8322813368
 21
61.7362788279
  0
LINE
  5
637
100
AcDbEntity
  8
SLD-0
100
AcDbLine
 62
7
  6
CONTINUOUS
 10
226.3705871052
 20
59.8626289724
 11
226.4788847562
 21
60.0840460821
  0
LINE
  5
638
100
AcDbEntity
  8
SLD-0
100
AcDbLine
 62
7
  6
CONTINUOUS
 10
235.8389631588
 20
73.6519624865
 11
235.7668225656
 21
73.5045162652
  0
LINE
  5
639
100
AcDbEntity
  8
SLD-0
100
AcDbLine
 62
7
  6
CONTINUOUS
 10
227.2496315576
 20
58.4482278654
 11
227.3580629339
 21
58.6698021971
  0
LINE
  5
63A
100
AcDbEntity
  8
SLD-0
100
AcDbLine
 62
7
  6
CONTINUOUS
 10
228.5577003422
 20
56.234609138
 11
228.6661273507
 21
56.4560376908
  0
LINE
  5
63B
100
AcDbEntity
  8
SLD-0
100
AcDbLine
 62
7
  6
CONTINUOUS
 10
229.7981399152
 20
54.1579286157
 11
229.9065669237
 21
54.3793571686
  0
LINE
  5
63C
100
AcDbEntity
  8
SLD-0
100
AcDbLine
 62
7
  6
CONTINUOUS
 10
235.8732249408
 20
70.9635814498
 11
236.0217282172
 21
71.2480207658
  0
LINE
  5
63D
100
AcDbEntity
  8
SLD-0
100
AcDbLine
 62
7
  6
CONTINUOUS
 10
235.8284011723
 20
73.6757988847
 11
235.7465772325
 21
73.5273022321
  0
LINE
  5
63E
100
AcDbEntity
  8
SLD-0
100
AcDbLine
 62
7
  6
CONTINUOUS
 10
232.1939539909
 20
57.8700463959
 11
232.0951545086
 21
57.7029739541
  0
LINE
  5
63F
100
AcDbEntity
  8
SLD-0
100
AcDbLine
 62
7
  6
CONTINUOUS
 10
234.6315880813
 20
59.5977666212
 11
234.5327929669
 21
59.4308399584
  0
LINE
  5
640
100
AcDbEntity
  8
SLD-0
100
AcDbLine
 62
7
  6
CONTINUOUS
 10
232.0024927032
 20
54.7265890147
 11
232.1012878176
 21
54.8935156776
  0
LINE
  5
641
100
AcDbEntity
  8
SLD-0
100
AcDbLine
 62
7
  6
CONTINUOUS
 10
235.2247935637
 20
58.9603554123
 11
235.3235886782
 21
59.1272820752
  0
LINE
  5
642
100
AcDbEntity
  8
SLD-0
100
AcDbLine
 62
7
  6
CONTINUOUS
 10
231.8752299917
 20
53.277980836
 11
231.7764348772
 21
53.1110541731
  0
LINE
  5
643
100
AcDbEntity
  8
SLD-0
100
AcDbLine
 62
7
  6
CONTINUOUS
 10
232.7870257479
 20
57.2324779648
 11
232.8859545878
 21
57.3995618498
  0
LINE
  5
644
100
AcDbEntity
  8
SLD-0
100
AcDbLine
 62
7
  6
CONTINUOUS
 10
231.4094165783
 20
55.3640116669
 11
231.3104921063
 21
55.1970735608
  0
LINE
  5
645
100
AcDbEntity
  8
SLD-0
100
AcDbLine
 62
7
  6
CONTINUOUS
 10
237.0610329524
 20
70.6113959492
 11
237.2324046265
 21
70.8926241217
  0
LINE
  5
646
100
AcDbEntity
  8
SLD-0
100
AcDbLine
 62
7
  6
CONTINUOUS
 10
239.1365133983
 20
69.548547406
 11
238.9651417242
 21
69.2673192336
  0
LINE
  5
647
100
AcDbEntity
  8
SLD-0
100
AcDbLine
 62
7
  6
CONTINUOUS
 10
233.3166840826
 20
57.1438268431
 11
233.0536416717
 21
56.7439909851
  0
LINE
  5
648
100
AcDbEntity
  8
SLD-0
100
AcDbLine
 62
7
  6
CONTINUOUS
 10
227.6325874556
 20
57.1405683532
 11
227.4953221052
 21
56.938397575
  0
LINE
  5
649
100
AcDbEntity
  8
SLD-0
100
AcDbLine
 62
7
  6
CONTINUOUS
 10
228.8731607539
 20
55.0640450531
 11
228.7357616782
 21
54.8617170528
  0
LINE
  5
64A
100
AcDbEntity
  8
SLD-0
100
AcDbLine
 62
7
  6
CONTINUOUS
 10
234.7988707992
 20
62.4208209335
 11
234.6614717235
 21
62.2184929332
  0
LINE
  5
64B
100
AcDbEntity
  8
SLD-0
100
AcDbLine
 62
7
  6
CONTINUOUS
 10
236.1730943107
 20
64.0514163844
 11
236.0356952349
 21
63.8490883841
  0
LINE
  5
64C
100
AcDbEntity
  8
SLD-0
100
AcDbLine
 62
7
  6
CONTINUOUS
 10
239.2293789072
 20
67.4549901039
 11
239.0919798315
 21
67.2526621036
  0
LINE
  5
64D
100
AcDbEntity
  8
SLD-0
100
AcDbLine
 62
7
  6
CONTINUOUS
 10
237.9362617947
 20
65.9865579
 11
237.7988670868
 21
65.7843756786
  0
LINE
  5
64E
100
AcDbEntity
  8
SLD-0
100
AcDbLine
 62
7
  6
CONTINUOUS
 10
233.6287940181
 20
57.4976975125
 11
233.3166840826
 21
57.1438268431
  0
LINE
  5
64F
100
AcDbEntity
  8
SLD-0
100
AcDbLine
 62
7
  6
CONTINUOUS
 10
239.9917705457
 20
66.3713604483
 11
240.1543580685
 21
66.5488736665
  0
LINE
  5
650
100
AcDbEntity
  8
SLD-0
100
AcDbLine
 62
7
  6
CONTINUOUS
 10
238.6987871585
 20
64.9030854665
 11
238.8613746813
 21
65.0805986848
  0
LINE
  5
651
100
AcDbEntity
  8
SLD-0
100
AcDbLine
 62
7
  6
CONTINUOUS
 10
236.9354859492
 20
62.9677867288
 11
237.0980734719
 21
63.1452999471
  0
LINE
  5
652
100
AcDbEntity
  8
SLD-0
100
AcDbLine
 62
7
  6
CONTINUOUS
 10
235.5613917953
 20
61.3372027212
 11
235.723979318
 21
61.5147159394
  0
LINE
  5
653
100
AcDbEntity
  8
SLD-0
100
AcDbLine
 62
7
  6
CONTINUOUS
 10
229.6355523924
 20
53.9804153975
 11
229.7981399152
 21
54.1579286157
  0
LINE
  5
654
100
AcDbEntity
  8
SLD-0
100
AcDbLine
 62
7
  6
CONTINUOUS
 10
236.6148830318
 20
53.0855942465
 11
236.9483907356
 21
53.41300627
  0
LINE
  5
655
100
AcDbEntity
  8
SLD-0
100
AcDbLine
 62
7
  6
CONTINUOUS
 10
236.2811986248
 20
52.1752880602
 11
236.1371485034
 21
52.0566993443
  0
LINE
  5
656
100
AcDbEntity
  8
SLD-0
100
AcDbLine
 62
7
  6
CONTINUOUS
 10
234.0933602377
 20
51.1028496233
 11
234.2372766338
 21
51.2212811171
  0
LINE
  5
657
100
AcDbEntity
  8
SLD-0
100
AcDbLine
 62
7
  6
CONTINUOUS
 10
238.1347829653
 20
54.1527406707
 11
237.9908665693
 21
54.0343091769
  0
LINE
  5
658
100
AcDbEntity
  8
SLD-0
100
AcDbLine
 62
7
  6
CONTINUOUS
 10
238.4400219303
 20
53.278309252
 11
238.5839383264
 21
53.3967407458
  0
LINE
  5
659
100
AcDbEntity
  8
SLD-0
100
AcDbLine
 62
7
  6
CONTINUOUS
 10
233.7882506303
 20
51.9772924852
 11
233.6442048767
 21
51.8588495482
  0
LINE
  5
65A
100
AcDbEntity
  8
SLD-0
100
AcDbLine
 62
7
  6
CONTINUOUS
 10
236.5863082323
 20
51.3008451984
 11
236.7303539859
 21
51.4192881354
  0
LINE
  5
65B
100
AcDbEntity
  8
SLD-0
100
AcDbLine
 62
7
  6
CONTINUOUS
 10
231.9437068628
 20
45.7243554214
 11
231.7603263583
 21
45.5762621998
  0
LINE
  5
65C
100
AcDbEntity
  8
SLD-0
100
AcDbLine
 62
7
  6
CONTINUOUS
 10
243.190438554
 20
51.968224939
 11
243.0070580495
 21
51.8201317174
  0
LINE
  5
65D
100
AcDbEntity
  8
SLD-0
100
AcDbLine
 62
7
  6
CONTINUOUS
 10
241.0346856048
 20
56.1477302643
 11
240.8513094681
 21
55.9997828216
  0
LINE
  5
65E
100
AcDbEntity
  8
SLD-0
100
AcDbLine
 62
7
  6
CONTINUOUS
 10
235.0742056391
 20
49.2624396828
 11
234.8908295024
 21
49.1144922401
  0
LINE
  5
65F
100
AcDbEntity
  8
SLD-0
100
AcDbLine
 62
7
  6
CONTINUOUS
 10
241.958322658
 20
54.4088322554
 11
241.7749465213
 21
54.2608848127
  0
LINE
  5
660
100
AcDbEntity
  8
SLD-0
100
AcDbLine
 62
7
  6
CONTINUOUS
 10
233.5395949755
 20
47.5363816404
 11
233.3562188388
 21
47.3884341977
  0
LINE
  5
661
100
AcDbEntity
  8
SLD-0
100
AcDbLine
 62
7
  6
CONTINUOUS
 10
230.4157021335
 20
44.0551486513
 11
230.2323259968
 21
43.9072012085
  0
LINE
  5
662
100
AcDbEntity
  8
SLD-0
100
AcDbLine
 62
7
  6
CONTINUOUS
 10
244.0913129805
 20
50.3394109177
 11
243.9079368438
 21
50.191463475
  0
LINE
  5
663
100
AcDbEntity
  8
SLD-0
100
AcDbLine
 62
7
  6
CONTINUOUS
 10
240.9079992688
 20
43.7511178449
 11
240.1052827155
 21
43.1831562896
  0
LINE
  5
664
100
AcDbEntity
  8
SLD-0
100
AcDbLine
 62
7
  6
CONTINUOUS
 10
240.1052827155
 20
43.1831562896
 11
239.2744088516
 21
42.6787120744
  0
LINE
  5
665
100
AcDbEntity
  8
SLD-0
100
AcDbLine
 62
7
  6
CONTINUOUS
 10
246.7851828144
 20
60.1411987512
 11
246.9841148082
 21
59.1763795724
  0
LINE
  5
666
100
AcDbEntity
  8
SLD-0
100
AcDbLine
 62
7
  6
CONTINUOUS
 10
246.9841148082
 20
59.1763795724
 11
247.1182756514
 21
58.1898374267
  0
LINE
  5
667
100
AcDbEntity
  8
SLD-0
100
AcDbLine
 62
7
  6
CONTINUOUS
 10
239.012123963
 20
65.5433424993
 11
238.983950753
 21
65.778566975
  0
LINE
  5
668
100
AcDbEntity
  8
SLD-0
100
AcDbLine
 62
7
  6
CONTINUOUS
 10
240.3052367077
 20
67.0116289243
 11
240.2770634977
 21
67.2468534
  0
LINE
  5
669
100
AcDbEntity
  8
SLD-0
100
AcDbLine
 62
7
  6
CONTINUOUS
 10
242.8508086897
 20
53.817669412
 11
242.8226311118
 21
54.0527481089
  0
LINE
  5
66A
100
AcDbEntity
  8
SLD-0
100
AcDbLine
 62
7
  6
CONTINUOUS
 10
244.0829202179
 20
51.3769163167
 11
244.0547470078
 21
51.6121407925
  0
LINE
  5
66B
100
AcDbEntity
  8
SLD-0
100
AcDbLine
 62
7
  6
CONTINUOUS
 10
244.9837990121
 20
49.7482480743
 11
244.9556214342
 21
49.9833267711
  0
LINE
  5
66C
100
AcDbEntity
  8
SLD-0
100
AcDbLine
 62
7
  6
CONTINUOUS
 10
241.9271716365
 20
55.5565674209
 11
241.8991234161
 21
55.791657561
  0
LINE
  5
66D
100
AcDbEntity
  8
SLD-0
100
AcDbLine
 62
7
  6
CONTINUOUS
 10
247.1182756514
 20
58.1898374267
 11
247.1867833576
 21
57.1865830292
  0
LINE
  5
66E
100
AcDbEntity
  8
SLD-0
100
AcDbLine
 62
7
  6
CONTINUOUS
 10
247.1867833576
 20
57.1865830292
 11
247.1892864741
 21
56.1721102047
  0
LINE
  5
66F
100
AcDbEntity
  8
SLD-0
100
AcDbLine
 62
7
  6
CONTINUOUS
 10
244.3136796626
 20
3.175
 11
244.3136796626
 21
0.0
  0
LINE
  5
670
100
AcDbEntity
  8
SLD-0
100
AcDbLine
 62
7
  6
CONTINUOUS
 10
249.8586220395
 20
72.9547199204
 11
249.8621868212
 21
73.1064068714
  0
LINE
  5
671
100
AcDbEntity
  8
SLD-0
100
AcDbLine
 62
7
  6
CONTINUOUS
 10
240.6376053872
 20
55.5630200658
 11
240.6303679008
 21
55.3214644506
  0
LINE
  5
672
100
AcDbEntity
  8
SLD-0
100
AcDbLine
 62
7
  6
CONTINUOUS
 10
241.561108715
 20
53.8239648349
 11
241.5538712286
 21
53.5824092196
  0
LINE
  5
673
100
AcDbEntity
  8
SLD-0
100
AcDbLine
 62
7
  6
CONTINUOUS
 10
242.793224611
 20
51.3833575184
 11
242.7859871246
 21
51.1418019032
  0
LINE
  5
674
100
AcDbEntity
  8
SLD-0
100
AcDbLine
 62
7
  6
CONTINUOUS
 10
243.6940990375
 20
49.7545434971
 11
243.686861551
 21
49.5129878819
  0
LINE
  5
675
100
AcDbEntity
  8
SLD-0
100
AcDbLine
 62
7
  6
CONTINUOUS
 10
249.7967281699
 20
70.5823974106
 11
249.8700071739
 21
73.0281297927
  0
LINE
  5
676
100
AcDbEntity
  8
SLD-0
100
AcDbLine
 62
7
  6
CONTINUOUS
 10
249.6708997517
 20
72.9543451704
 11
249.6762195192
 21
73.1044255765
  0
LINE
  5
677
100
AcDbEntity
  8
SLD-0
100
AcDbLine
 62
7
  6
CONTINUOUS
 10
247.1892864741
 20
56.1721102047
 11
247.1258172529
 21
55.1518013287
  0
LINE
  5
678
100
AcDbEntity
  8
SLD-0
100
AcDbLine
 62
7
  6
CONTINUOUS
 10
237.7642761751
 20
55.1266625303
 11
237.8121421968
 21
55.6003692406
  0
LINE
  5
679
100
AcDbEntity
  8
SLD-0
100
AcDbLine
 62
7
  6
CONTINUOUS
 10
239.2919648011
 20
70.1854512172
 11
239.2476571941
 21
69.8606504264
  0
LINE
  5
67A
100
AcDbEntity
  8
SLD-0
100
AcDbLine
 62
7
  6
CONTINUOUS
 10
241.8848493633
 20
55.3152521592
 11
241.9271716365
 21
55.5565674209
  0
LINE
  5
67B
100
AcDbEntity
  8
SLD-0
100
AcDbLine
 62
7
  6
CONTINUOUS
 10
237.2065004805
 20
63.3667284999
 11
237.248956479
 21
63.6082009837
  0
LINE
  5
67C
100
AcDbEntity
  8
SLD-0
100
AcDbLine
 62
7
  6
CONTINUOUS
 10
235.9242356722
 20
48.4298043556
 11
235.9666916708
 21
48.6712768394
  0
LINE
  5
67D
100
AcDbEntity
  8
SLD-0
100
AcDbLine
 62
7
  6
CONTINUOUS
 10
242.8083526911
 20
53.5761969283
 11
242.8508086897
 21
53.817669412
  0
LINE
  5
67E
100
AcDbEntity
  8
SLD-0
100
AcDbLine
 62
7
  6
CONTINUOUS
 10
234.3896293764
 20
46.7038920921
 11
234.4320810071
 21
46.945218797
  0
LINE
  5
67F
100
AcDbEntity
  8
SLD-0
100
AcDbLine
 62
7
  6
CONTINUOUS
 10
238.9696723323
 20
65.3020157944
 11
239.012123963
 21
65.5433424993
  0
LINE
  5
680
100
AcDbEntity
  8
SLD-0
100
AcDbLine
 62
7
  6
CONTINUOUS
 10
240.262785077
 20
66.7703022194
 11
240.3052367077
 21
67.0116289243
  0
LINE
  5
681
100
AcDbEntity
  8
SLD-0
100
AcDbLine
 62
7
  6
CONTINUOUS
 10
244.0404685871
 20
51.1355896118
 11
244.0829202179
 21
51.3769163167
  0
LINE
  5
682
100
AcDbEntity
  8
SLD-0
100
AcDbLine
 62
7
  6
CONTINUOUS
 10
236.8291491003
 20
51.5862147983
 11
236.8677479246
 21
51.7764586934
  0
LINE
  5
683
100
AcDbEntity
  8
SLD-0
100
AcDbLine
 62
7
  6
CONTINUOUS
 10
234.3362054736
 20
51.3883650021
 11
234.37479993
 21
51.5784631184
  0
LINE
  5
684
100
AcDbEntity
  8
SLD-0
100
AcDbLine
 62
7
  6
CONTINUOUS
 10
237.0196881355
 20
58.9359410041
 11
236.981093679
 21
58.7458428878
  0
LINE
  5
685
100
AcDbEntity
  8
SLD-0
100
AcDbLine
 62
7
  6
CONTINUOUS
 10
236.038353389
 20
51.8897726815
 11
235.9997589325
 21
51.6996745652
  0
LINE
  5
686
100
AcDbEntity
  8
SLD-0
100
AcDbLine
 62
7
  6
CONTINUOUS
 10
237.8919377295
 20
53.8672252919
 11
237.853343273
 21
53.6771271756
  0
LINE
  5
687
100
AcDbEntity
  8
SLD-0
100
AcDbLine
 62
7
  6
CONTINUOUS
 10
239.0521335867
 20
56.6865175098
 11
239.0907280431
 21
56.8766156261
  0
LINE
  5
688
100
AcDbEntity
  8
SLD-0
100
AcDbLine
 62
7
  6
CONTINUOUS
 10
237.8104882146
 20
58.6325288998
 11
237.8492120286
 21
58.8226384593
  0
LINE
  5
689
100
AcDbEntity
  8
SLD-0
100
AcDbLine
 62
7
  6
CONTINUOUS
 10
238.2613335075
 20
56.9899296141
 11
238.2226096935
 21
56.7998200546
  0
LINE
  5
68A
100
AcDbEntity
  8
SLD-0
100
AcDbLine
 62
7
  6
CONTINUOUS
 10
238.6827378086
 20
53.5638131876
 11
238.7214616226
 21
53.7539227471
  0
LINE
  5
68B
100
AcDbEntity
  8
SLD-0
100
AcDbLine
 62
7
  6
CONTINUOUS
 10
237.6502829151
 20
54.6591736431
 11
237.7642761751
 21
55.1266625303
  0
LINE
  5
68C
100
AcDbEntity
  8
SLD-0
100
AcDbLine
 62
7
  6
CONTINUOUS
 10
236.0356952349
 20
63.8490883841
 11
235.9592565044
 21
63.6144964065
  0
LINE
  5
68D
100
AcDbEntity
  8
SLD-0
100
AcDbLine
 62
7
  6
CONTINUOUS
 10
230.0949312889
 20
43.7050189872
 11
230.0184925583
 21
43.4704270096
  0
LINE
  5
68E
100
AcDbEntity
  8
SLD-0
100
AcDbLine
 62
7
  6
CONTINUOUS
 10
237.7988670868
 20
65.7843756786
 11
237.7224283562
 21
65.549783701
  0
LINE
  5
68F
100
AcDbEntity
  8
SLD-0
100
AcDbLine
 62
7
  6
CONTINUOUS
 10
231.6230610079
 20
45.3740914217
 11
231.5466222774
 21
45.1394994441
  0
LINE
  5
690
100
AcDbEntity
  8
SLD-0
100
AcDbLine
 62
7
  6
CONTINUOUS
 10
239.0919798315
 20
67.2526621036
 11
239.0155411009
 21
67.018070126
  0
LINE
  5
691
100
AcDbEntity
  8
SLD-0
100
AcDbLine
 62
7
  6
CONTINUOUS
 10
233.218819763
 20
47.1861061974
 11
233.1423810325
 21
46.9515142198
  0
LINE
  5
692
100
AcDbEntity
  8
SLD-0
100
AcDbLine
 62
7
  6
CONTINUOUS
 10
234.7534304267
 20
48.9121642398
 11
234.6769916961
 21
48.6775722622
  0
LINE
  5
693
100
AcDbEntity
  8
SLD-0
100
AcDbLine
 62
7
  6
CONTINUOUS
 10
240.7140441177
 20
55.7976120434
 11
240.6376053872
 21
55.5630200658
  0
LINE
  5
694
100
AcDbEntity
  8
SLD-0
100
AcDbLine
 62
7
  6
CONTINUOUS
 10
241.6375474456
 20
54.0585568125
 11
241.561108715
 21
53.8239648349
  0
LINE
  5
695
100
AcDbEntity
  8
SLD-0
100
AcDbLine
 62
7
  6
CONTINUOUS
 10
239.2476571941
 20
69.8606504264
 11
239.1365133983
 21
69.548547406
  0
LINE
  5
696
100
AcDbEntity
  8
SLD-0
100
AcDbLine
 62
7
  6
CONTINUOUS
 10
237.4729783715
 20
54.2100738694
 11
237.6502829151
 21
54.6591736431
  0
LINE
  5
697
100
AcDbEntity
  8
SLD-0
100
AcDbLine
 62
7
  6
CONTINUOUS
 10
234.2813273576
 20
46.4823292036
 11
234.3896293764
 21
46.7038920921
  0
LINE
  5
698
100
AcDbEntity
  8
SLD-0
100
AcDbLine
 62
7
  6
CONTINUOUS
 10
238.8613746813
 20
65.0805986848
 11
238.9696723323
 21
65.3020157944
  0
LINE
  5
699
100
AcDbEntity
  8
SLD-0
100
AcDbLine
 62
7
  6
CONTINUOUS
 10
231.1574388834
 20
43.0012419934
 11
231.2657365344
 21
43.222659103
  0
LINE
  5
69A
100
AcDbEntity
  8
SLD-0
100
AcDbLine
 62
7
  6
CONTINUOUS
 10
235.8159380212
 20
48.208387246
 11
235.9242356722
 21
48.4298043556
  0
LINE
  5
69B
100
AcDbEntity
  8
SLD-0
100
AcDbLine
 62
7
  6
CONTINUOUS
 10
237.0980734719
 20
63.1452999471
 11
237.2065004805
 21
63.3667284999
  0
LINE
  5
69C
100
AcDbEntity
  8
SLD-0
100
AcDbLine
 62
7
  6
CONTINUOUS
 10
240.1543580685
 20
66.5488736665
 11
240.262785077
 21
66.7703022194
  0
LINE
  5
69D
100
AcDbEntity
  8
SLD-0
100
AcDbLine
 62
7
  6
CONTINUOUS
 10
232.6854392449
 20
44.6703029846
 11
232.7938662535
 21
44.8917315375
  0
LINE
  5
69E
100
AcDbEntity
  8
SLD-0
100
AcDbLine
 62
7
  6
CONTINUOUS
 10
241.7764223547
 20
55.0938236064
 11
241.8848493633
 21
55.3152521592
  0
LINE
  5
69F
100
AcDbEntity
  8
SLD-0
100
AcDbLine
 62
7
  6
CONTINUOUS
 10
249.7780384681
 20
72.8061733428
 11
249.8586220395
 21
72.9547199204
  0
LINE
  5
6A0
100
AcDbEntity
  8
SLD-0
100
AcDbLine
 62
7
  6
CONTINUOUS
 10
249.5887118957
 20
72.8074082933
 11
249.6708997517
 21
72.9543451704
  0
LINE
  5
6A1
100
AcDbEntity
  8
SLD-0
100
AcDbLine
 62
7
  6
CONTINUOUS
 10
237.2369720329
 20
53.7911115891
 11
237.4729783715
 21
54.2100738694
  0
LINE
  5
6A2
100
AcDbEntity
  8
SLD-0
100
AcDbLine
 62
7
  6
CONTINUOUS
 10
232.4684354741
 20
52.6405696271
 11
232.5672349564
 21
52.8076420688
  0
LINE
  5
6A3
100
AcDbEntity
  8
SLD-0
100
AcDbLine
 62
7
  6
CONTINUOUS
 10
237.1184876178
 20
59.1030134458
 11
237.0196881355
 21
58.9359410041
  0
LINE
  5
6A4
100
AcDbEntity
  8
SLD-0
100
AcDbLine
 62
7
  6
CONTINUOUS
 10
233.6442048767
 20
51.8588495482
 11
233.5454053944
 21
51.6917771064
  0
LINE
  5
6A5
100
AcDbEntity
  8
SLD-0
100
AcDbLine
 62
7
  6
CONTINUOUS
 10
237.7116887324
 20
58.465456458
 11
237.8104882146
 21
58.6325288998
  0
LINE
  5
6A6
100
AcDbEntity
  8
SLD-0
100
AcDbLine
 62
7
  6
CONTINUOUS
 10
238.3601329898
 20
57.1570020559
 11
238.2613335075
 21
56.9899296141
  0
LINE
  5
6A7
100
AcDbEntity
  8
SLD-0
100
AcDbLine
 62
7
  6
CONTINUOUS
 10
238.5839383264
 20
53.3967407458
 11
238.6827378086
 21
53.5638131876
  0
LINE
  5
6A8
100
AcDbEntity
  8
SLD-0
100
AcDbLine
 62
7
  6
CONTINUOUS
 10
236.1371485034
 20
52.0566993443
 11
236.038353389
 21
51.8897726815
  0
LINE
  5
6A9
100
AcDbEntity
  8
SLD-0
100
AcDbLine
 62
7
  6
CONTINUOUS
 10
236.7303539859
 20
51.4192881354
 11
236.8291491003
 21
51.5862147983
  0
LINE
  5
6AA
100
AcDbEntity
  8
SLD-0
100
AcDbLine
 62
7
  6
CONTINUOUS
 10
234.2372766338
 20
51.2212811171
 11
234.3362054736
 21
51.3883650021
  0
LINE
  5
6AB
100
AcDbEntity
  8
SLD-0
100
AcDbLine
 62
7
  6
CONTINUOUS
 10
237.9908665693
 20
54.0343091769
 11
237.8919377295
 21
53.8672252919
  0
LINE
  5
6AC
100
AcDbEntity
  8
SLD-0
100
AcDbLine
 62
7
  6
CONTINUOUS
 10
238.9532091147
 20
56.5195794037
 11
239.0521335867
 21
56.6865175098
  0
LINE
  5
6AD
100
AcDbEntity
  8
SLD-0
100
AcDbLine
 62
7
  6
CONTINUOUS
 10
231.7603263583
 20
45.5762621998
 11
231.6230610079
 21
45.3740914217
  0
LINE
  5
6AE
100
AcDbEntity
  8
SLD-0
100
AcDbLine
 62
7
  6
CONTINUOUS
 10
233.3562188388
 20
47.3884341977
 11
233.218819763
 21
47.1861061974
  0
LINE
  5
6AF
100
AcDbEntity
  8
SLD-0
100
AcDbLine
 62
7
  6
CONTINUOUS
 10
234.8908295024
 20
49.1144922401
 11
234.7534304267
 21
48.9121642398
  0
LINE
  5
6B0
100
AcDbEntity
  8
SLD-0
100
AcDbLine
 62
7
  6
CONTINUOUS
 10
240.8513094681
 20
55.9997828216
 11
240.7140441177
 21
55.7976120434
  0
LINE
  5
6B1
100
AcDbEntity
  8
SLD-0
100
AcDbLine
 62
7
  6
CONTINUOUS
 10
241.7749465213
 20
54.2608848127
 11
241.6375474456
 21
54.0585568125
  0
LINE
  5
6B2
100
AcDbEntity
  8
SLD-0
100
AcDbLine
 62
7
  6
CONTINUOUS
 10
230.2323259968
 20
43.9072012085
 11
230.0949312889
 21
43.7050189872
  0
LINE
  5
6B3
100
AcDbEntity
  8
SLD-0
100
AcDbLine
 62
7
  6
CONTINUOUS
 10
243.0070580495
 20
51.8201317174
 11
242.8696633416
 21
51.617949496
  0
LINE
  5
6B4
100
AcDbEntity
  8
SLD-0
100
AcDbLine
 62
7
  6
CONTINUOUS
 10
236.9483907356
 20
53.41300627
 11
237.2369720329
 21
53.7911115891
  0
LINE
  5
6B5
100
AcDbEntity
  8
SLD-0
100
AcDbLine
 62
7
  6
CONTINUOUS
 10
230.9948469928
 20
42.8235829962
 11
231.1574388834
 21
43.0012419934
  0
LINE
  5
6B6
100
AcDbEntity
  8
SLD-0
100
AcDbLine
 62
7
  6
CONTINUOUS
 10
241.613834832
 20
54.9163103882
 11
241.7764223547
 21
55.0938236064
  0
LINE
  5
6B7
100
AcDbEntity
  8
SLD-0
100
AcDbLine
 62
7
  6
CONTINUOUS
 10
235.6533504985
 20
48.0308740278
 11
235.8159380212
 21
48.208387246
  0
LINE
  5
6B8
100
AcDbEntity
  8
SLD-0
100
AcDbLine
 62
7
  6
CONTINUOUS
 10
234.1187398348
 20
46.3048159854
 11
234.2813273576
 21
46.4823292036
  0
LINE
  5
6B9
100
AcDbEntity
  8
SLD-0
100
AcDbLine
 62
7
  6
CONTINUOUS
 10
232.5228517222
 20
44.4927897664
 11
232.6854392449
 21
44.6703029846
  0
LINE
  5
6BA
100
AcDbEntity
  8
SLD-0
100
AcDbLine
 62
7
  6
CONTINUOUS
 10
242.5373381598
 20
53.1772551572
 11
242.6999256826
 21
53.3547683754
  0
LINE
  5
6BB
100
AcDbEntity
  8
SLD-0
100
AcDbLine
 62
7
  6
CONTINUOUS
 10
243.7695834134
 20
50.736659284
 11
243.9321709361
 21
50.9141725022
  0
LINE
  5
6BC
100
AcDbEntity
  8
SLD-0
100
AcDbLine
 62
7
  6
CONTINUOUS
 10
244.6703284822
 20
49.1078338195
 11
244.832916005
 21
49.2853470377
  0
LINE
  5
6BD
100
AcDbEntity
  8
SLD-0
100
AcDbLine
 62
7
  6
CONTINUOUS
 10
243.1050795529
 20
45.8037377174
 11
242.4119370003
 21
45.0648918236
  0
LINE
  5
6BE
100
AcDbEntity
  8
SLD-0
100
AcDbLine
 62
7
  6
CONTINUOUS
 10
242.4119370003
 20
45.0648918236
 11
241.6782067245
 21
44.3794493145
  0
LINE
  5
6BF
100
AcDbEntity
  8
SLD-0
100
AcDbLine
 62
7
  6
CONTINUOUS
 10
241.6782067245
 20
44.3794493145
 11
240.9079992688
 21
43.7511178449
  0
LINE
  5
6C0
100
AcDbEntity
  8
SLD-0
100
AcDbLine
 62
7
  6
CONTINUOUS
 10
255.1893829515
 20
9.525
 11
255.1893829515
 21
3.175
  0
LINE
  5
6C1
100
AcDbEntity
  8
0
100
AcDbLine
 62
7
  6
CONTINUOUS
 10
261.62
 20
0.0
 11
261.62
 21
198.12
  0
LINE
  5
6C2
100
AcDbEntity
  8
SLD-0
100
AcDbLine
 62
7
  6
CONTINUOUS
 10
261.62
 20
0.0
 11
261.62
 21
198.12
  0
LINE
  5
6C3
100
AcDbEntity
  8
SLD-0
100
AcDbLine
 62
7
  6
CONTINUOUS
 10
247.1258172529
 20
55.1518013287
 11
246.9966710289
 21
54.1312074422
  0
LINE
  5
6C4
100
AcDbEntity
  8
SLD-0
100
AcDbLine
 62
7
  6
CONTINUOUS
 10
244.9413430135
 20
49.5067755905
 11
244.9837990121
 21
49.7482480743
  0
LINE
  5
6C5
100
AcDbEntity
  8
SLD-0
100
AcDbLine
 62
7
  6
CONTINUOUS
 10
246.9966710289
 20
54.1312074422
 11
246.8025181061
 21
53.1154765791
  0
LINE
  5
6C6
100
AcDbEntity
  8
SLD-0
100
AcDbLine
 62
7
  6
CONTINUOUS
 10
246.8025181061
 20
53.1154765791
 11
246.5445636898
 21
52.1103856619
  0
LINE
  5
6C7
100
AcDbEntity
  8
SLD-0
100
AcDbLine
 62
7
  6
CONTINUOUS
 10
246.5445636898
 20
52.1103856619
 11
246.2239911463
 21
51.1209827187
  0
LINE
  5
6C8
100
AcDbEntity
  8
SLD-0
100
AcDbLine
 62
7
  6
CONTINUOUS
 10
242.8696633416
 20
51.617949496
 11
242.793224611
 21
51.3833575184
  0
LINE
  5
6C9
100
AcDbEntity
  8
SLD-0
100
AcDbLine
 62
7
  6
CONTINUOUS
 10
243.770537768
 20
49.9891354747
 11
243.6940990375
 21
49.7545434971
  0
LINE
  5
6CA
100
AcDbEntity
  8
SLD-0
100
AcDbLine
 62
7
  6
CONTINUOUS
 10
246.2239911463
 20
51.1209827187
 11
245.842643733
 21
50.1528103304
  0
LINE
  5
6CB
100
AcDbEntity
  8
SLD-0
100
AcDbLine
 62
7
  6
CONTINUOUS
 10
245.842643733
 20
50.1528103304
 11
245.4024765935
 21
49.2108394056
  0
LINE
  5
6CC
100
AcDbEntity
  8
SLD-0
100
AcDbLine
 62
7
  6
CONTINUOUS
 10
243.9321709361
 20
50.9141725022
 11
244.0404685871
 21
51.1355896118
  0
LINE
  5
6CD
100
AcDbEntity
  8
SLD-0
100
AcDbLine
 62
7
  6
CONTINUOUS
 10
242.6999256826
 20
53.3547683754
 11
242.8083526911
 21
53.5761969283
  0
LINE
  5
6CE
100
AcDbEntity
  8
SLD-0
100
AcDbLine
 62
7
  6
CONTINUOUS
 10
244.832916005
 20
49.2853470377
 11
244.9413430135
 21
49.5067755905
  0
LINE
  5
6CF
100
AcDbEntity
  8
SLD-0
100
AcDbLine
 62
7
  6
CONTINUOUS
 10
245.4024765935
 20
49.2108394056
 11
244.9058373117
 21
48.3002209615
  0
LINE
  5
6D0
100
AcDbEntity
  8
SLD-0
100
AcDbLine
 62
7
  6
CONTINUOUS
 10
244.9058373117
 20
48.3002209615
 11
244.3553234509
 21
47.425837344
  0
LINE
  5
6D1
100
AcDbEntity
  8
SLD-0
100
AcDbLine
 62
7
  6
CONTINUOUS
 10
243.9079368438
 20
50.191463475
 11
243.770537768
 21
49.9891354747
  0
LINE
  5
6D2
100
AcDbEntity
  8
SLD-0
100
AcDbLine
 62
7
  6
CONTINUOUS
 10
244.3553234509
 20
47.425837344
 11
243.7540369013
 21
46.5921793352
  0
LINE
  5
6D3
100
AcDbEntity
  8
SLD-0
100
AcDbLine
 62
7
  6
CONTINUOUS
 10
243.7540369013
 20
46.5921793352
 11
243.1050795529
 21
45.8037377174
  0
ARC
  5
6D4
100
AcDbEntity
  8
SLD-0
100
AcDbCircle
 62
7
  6
CONTINUOUS
 10
176.0207389961
 20
53.9627685824
 40
14.2465916718
100
AcDbArc
 50
52.5074642649
 51
60.0797650131
  0
ARC
  5
6D5
100
AcDbEntity
  8
SLD-0
100
AcDbCircle
 62
7
  6
CONTINUOUS
 10
176.0207389961
 20
53.9627685824
 40
14.2465916718
100
AcDbArc
 50
64.3220824852
 51
38.4909849027
  0
CIRCLE
  5
6D6
100
AcDbEntity
  8
SLD-0
100
AcDbCircle
 62
7
  6
CONTINUOUS
 10
175.5849298573
 20
54.2269900444
 40
3.0
  0
CIRCLE
  5
6D7
100
AcDbEntity
  8
SLD-0
100
AcDbCircle
 62
7
  6
CONTINUOUS
 10
165.9459599992
 20
49.3298521673
 40
0.75
  0
CIRCLE
  5
6D8
100
AcDbEntity
  8
SLD-0
100
AcDbCircle
 62
7
  6
CONTINUOUS
 10
182.3829225415
 20
53.9358441406
 40
0.75
  0
CIRCLE
  5
6D9
100
AcDbEntity
  8
SLD-0
100
AcDbCircle
 62
7
  6
CONTINUOUS
 10
183.8875439683
 20
56.1766046953
 40
0.75
  0
CIRCLE
  5
6DA
100
AcDbEntity
  8
SLD-0
100
AcDbCircle
 62
7
  6
CONTINUOUS
 10
185.47496222
 20
58.5640265657
 40
0.75
  0
CIRCLE
  5
6DB
100
AcDbEntity
  8
SLD-0
100
AcDbCircle
 62
7
  6
CONTINUOUS
 10
186.5392587354
 20
60.0932793745
 40
0.75
  0
CIRCLE
  5
6DC
100
AcDbEntity
  8
SLD-0
100
AcDbCircle
 62
7
  6
CONTINUOUS
 10
175.7932944304
 20
60.9385269201
 40
0.75
  0
CIRCLE
  5
6DD
100
AcDbEntity
  8
SLD-0
100
AcDbCircle
 62
7
  6
CONTINUOUS
 10
164.8491451067
 20
47.5788573199
 40
0.75
  0
CIRCLE
  5
6DE
100
AcDbEntity
  8
SLD-0
100
AcDbCircle
 62
7
  6
CONTINUOUS
 10
167.4535752058
 20
51.9429673996
 40
0.75
  0
CIRCLE
  5
6DF
100
AcDbEntity
  8
SLD-0
100
AcDbCircle
 62
7
  6
CONTINUOUS
 10
175.2265812272
 20
47.2925908737
 40
0.75
  0
CIRCLE
  5
6E0
100
AcDbEntity
  8
SLD-0
100
AcDbCircle
 62
7
  6
CONTINUOUS
 10
174.26253368
 20
62.4850739665
 40
0.75
  0
CIRCLE
  5
6E1
100
AcDbEntity
  8
SLD-0
100
AcDbCircle
 62
7
  6
CONTINUOUS
 10
168.5804517524
 20
53.8089603131
 40
0.75
  0
CIRCLE
  5
6E2
100
AcDbEntity
  8
SLD-0
100
AcDbCircle
 62
7
  6
CONTINUOUS
 10
178.7198083466
 20
43.9502417172
 40
0.75
  0
CIRCLE
  5
6E3
100
AcDbEntity
  8
SLD-0
100
AcDbCircle
 62
7
  6
CONTINUOUS
 10
180.4269510686
 20
42.3781232388
 40
0.75
  0
CIRCLE
  5
6E4
100
AcDbEntity
  8
SLD-0
100
AcDbCircle
 62
7
  6
CONTINUOUS
 10
176.9392939625
 20
45.6627498354
 40
0.75
  0
CIRCLE
  5
6E5
100
AcDbEntity
  8
SLD-0
100
AcDbCircle
 62
7
  6
CONTINUOUS
 10
174.0432510624
 20
50.3933815062
 40
0.5
  0
CIRCLE
  5
6E6
100
AcDbEntity
  8
SLD-0
100
AcDbCircle
 62
7
  6
CONTINUOUS
 10
176.9157983341
 20
50.4165338804
 40
0.5
  0
CIRCLE
  5
6E7
100
AcDbEntity
  8
SLD-0
100
AcDbCircle
 62
7
  6
CONTINUOUS
 10
179.0080027038
 20
52.0314985619
 40
0.5
  0
CIRCLE
  5
6E8
100
AcDbEntity
  8
SLD-0
100
AcDbCircle
 62
7
  6
CONTINUOUS
 10
176.0431433277
 20
58.2586588845
 40
0.5
  0
CIRCLE
  5
6E9
100
AcDbEntity
  8
SLD-0
100
AcDbCircle
 62
7
  6
CONTINUOUS
 10
178.7988445568
 20
56.7088676326
 40
0.5
  0
CIRCLE
  5
6EA
100
AcDbEntity
  8
SLD-0
100
AcDbCircle
 62
7
  6
CONTINUOUS
 10
179.6183000045
 20
54.2116464932
 40
0.5
  0
CIRCLE
  5
6EB
100
AcDbEntity
  8
SLD-0
100
AcDbCircle
 62
7
  6
CONTINUOUS
 10
171.9707329019
 20
52.2520648811
 40
0.5
  0
CIRCLE
  5
6EC
100
AcDbEntity
  8
SLD-0
100
AcDbCircle
 62
7
  6
CONTINUOUS
 10
171.652278089
 20
55.4190663193
 40
0.5
  0
CIRCLE
  5
6ED
100
AcDbEntity
  8
SLD-0
100
AcDbCircle
 62
7
  6
CONTINUOUS
 10
173.1536303564
 20
57.526033342
 40
0.5
  0
CIRCLE
  5
6EE
100
AcDbEntity
  8
SLD-0
100
AcDbCircle
 62
7
  6
CONTINUOUS
 10
179.3162931323
 20
71.7848488754
 40
1.374438708
  0
CIRCLE
  5
6EF
100
AcDbEntity
  8
SLD-0
100
AcDbCircle
 62
7
  6
CONTINUOUS
 10
172.2930061607
 20
64.308658496
 40
0.75
  0
CIRCLE
  5
6F0
100
AcDbEntity
  8
SLD-0
100
AcDbCircle
 62
7
  6
CONTINUOUS
 10
170.8502942759
 20
65.6962663901
 40
0.75
  0
ARC
  5
6F1
100
AcDbEntity
  8
SLD-0
100
AcDbCircle
 62
7
  6
CONTINUOUS
 10
241.7600069266
 20
41.1511834101
 40
31.0875792494
100
AcDbArc
 50
81.6437082212
 51
94.9238621062
  0
ARC
  5
6F2
100
AcDbEntity
  8
SLD-0
100
AcDbCircle
 62
7
  6
CONTINUOUS
 10
239.0611315251
 20
53.4342980305
 40
16.6160391681
100
AcDbArc
 50
141.3526728965
 51
178.1041896726
  0
ARC
  5
6F3
100
AcDbEntity
  8
SLD-0
100
AcDbCircle
 62
7
  6
CONTINUOUS
 10
238.1090413489
 20
53.789686154
 40
16.4832764457
100
AcDbArc
 50
132.3279067115
 51
178.2169408078
  0
ARC
  5
6F4
100
AcDbEntity
  8
SLD-0
100
AcDbCircle
 62
7
  6
CONTINUOUS
 10
236.0571563963
 20
56.1290374058
 40
13.3597360342
100
AcDbArc
 50
111.1482961476
 51
124.8524601324
  0
ARC
  5
6F5
100
AcDbEntity
  8
SLD-0
100
AcDbCircle
 62
7
  6
CONTINUOUS
 10
233.7613977573
 20
53.2519714006
 40
12.1730722297
100
AcDbArc
 50
175.0489344615
 51
246.1767126397
  0
ARC
  5
6F6
100
AcDbEntity
  8
SLD-0
100
AcDbCircle
 62
7
  6
CONTINUOUS
 10
236.2139690367
 20
57.7382507071
 40
11.3181320784
100
AcDbArc
 50
85.9676245341
 51
108.2108489598
  0
ARC
  5
6F7
100
AcDbEntity
  8
SLD-0
100
AcDbCircle
 62
7
  6
CONTINUOUS
 10
233.9356944439
 20
55.864047892
 40
3.0959891339
100
AcDbArc
 50
266.1558084017
 51
51.4027128715
  0
ARC
  5
6F8
100
AcDbEntity
  8
SLD-0
100
AcDbCircle
 62
7
  6
CONTINUOUS
 10
224.868021477
 20
60.6569383068
 40
0.8343373657
100
AcDbArc
 50
298.9272565336
 51
18.8218825456
  0
ARC
  5
6F9
100
AcDbEntity
  8
SLD-0
100
AcDbCircle
 62
7
  6
CONTINUOUS
 10
234.221789007
 20
62.3090558703
 40
0.8339184652
100
AcDbArc
 50
298.3394929687
 51
19.2187629927
  0
ARC
  5
6FA
100
AcDbEntity
  8
SLD-0
100
AcDbCircle
 62
7
  6
CONTINUOUS
 10
229.6559223786
 20
43.7951728148
 40
0.8333649025
100
AcDbArc
 50
298.3070491974
 51
19.2512067641
  0
ARC
  5
6FB
100
AcDbEntity
  8
SLD-0
100
AcDbCircle
 62
7
  6
CONTINUOUS
 10
234.3144215164
 20
49.0023180674
 40
0.8333649025
100
AcDbArc
 50
298.3070491975
 51
19.251206764
  0
ARC
  5
6FC
100
AcDbEntity
  8
SLD-0
100
AcDbCircle
 62
7
  6
CONTINUOUS
 10
232.7799887691
 20
47.2763384162
 40
0.8332232857
100
AcDbArc
 50
298.2987397288
 51
19.2595162327
  0
ARC
  5
6FD
100
AcDbEntity
  8
SLD-0
100
AcDbCircle
 62
7
  6
CONTINUOUS
 10
227.056679275
 20
57.0283475841
 40
0.8329606682
100
AcDbArc
 50
298.2833202583
 51
19.2749357032
  0
ARC
  5
6FE
100
AcDbEntity
  8
SLD-0
100
AcDbCircle
 62
7
  6
CONTINUOUS
 10
231.1844181778
 20
45.4640414308
 40
0.8329606682
100
AcDbArc
 50
298.2833202583
 51
19.2749357031
  0
ARC
  5
6FF
100
AcDbEntity
  8
SLD-0
100
AcDbCircle
 62
7
  6
CONTINUOUS
 10
240.2754012876
 20
55.8875620525
 40
0.8329606682
100
AcDbArc
 50
298.2833202582
 51
19.2749357032
  0
ARC
  5
700
100
AcDbEntity
  8
SLD-0
100
AcDbCircle
 62
7
  6
CONTINUOUS
 10
242.431149869
 20
51.7079109484
 40
0.8329606682
100
AcDbArc
 50
298.283320258
 51
19.2749357034
  0
ARC
  5
701
100
AcDbEntity
  8
SLD-0
100
AcDbCircle
 62
7
  6
CONTINUOUS
 10
225.7486363594
 20
59.2421037416
 40
0.8329431284
100
AcDbArc
 50
298.2822899405
 51
19.2759660209
  0
ARC
  5
702
100
AcDbEntity
  8
SLD-0
100
AcDbCircle
 62
7
  6
CONTINUOUS
 10
228.2978362284
 20
54.9515544766
 40
0.8324466069
100
AcDbArc
 50
298.256743481
 51
19.2963538878
  0
ARC
  5
703
100
AcDbEntity
  8
SLD-0
100
AcDbCircle
 62
7
  6
CONTINUOUS
 10
241.1996219958
 20
54.1483942363
 40
0.8324466069
100
AcDbArc
 50
298.256743481
 51
19.2963538878
  0
ARC
  5
704
100
AcDbEntity
  8
SLD-0
100
AcDbCircle
 62
7
  6
CONTINUOUS
 10
243.3326123182
 20
50.0789728986
 40
0.8324466069
100
AcDbArc
 50
298.256743481
 51
19.2963538878
  0
ARC
  5
705
100
AcDbEntity
  8
SLD-0
100
AcDbCircle
 62
7
  6
CONTINUOUS
 10
243.2620649842
 20
83.9424318213
 40
14.8725365156
100
AcDbArc
 50
254.0591867557
 51
296.0641925489
  0
ARC
  5
706
100
AcDbEntity
  8
SLD-0
100
AcDbCircle
 62
7
  6
CONTINUOUS
 10
232.1202992015
 20
85.9190834707
 40
3.4247790304
100
AcDbArc
 50
267.1333270625
 51
283.1352673616
  0
ARC
  5
707
100
AcDbEntity
  8
SLD-0
100
AcDbCircle
 62
7
  6
CONTINUOUS
 10
231.9990399533
 20
85.0347058986
 40
2.5687854344
100
AcDbArc
 50
255.4045874222
 51
294.7061033565
  0
ARC
  5
708
100
AcDbEntity
  8
SLD-0
100
AcDbCircle
 62
7
  6
CONTINUOUS
 10
234.2931735318
 20
71.8787885167
 40
1.0780242655
100
AcDbArc
 50
79.6012950119
 51
110.5093957669
  0
ARC
  5
709
100
AcDbEntity
  8
SLD-0
100
AcDbCircle
 62
7
  6
CONTINUOUS
 10
235.5959864519
 20
63.9395139678
 40
0.8339361813
100
AcDbArc
 50
298.3405303194
 51
19.217725642
  0
ARC
  5
70A
100
AcDbEntity
  8
SLD-0
100
AcDbCircle
 62
7
  6
CONTINUOUS
 10
237.3591583038
 20
65.8748012623
 40
0.8339361813
100
AcDbArc
 50
298.3405303193
 51
19.2177256421
  0
ARC
  5
70B
100
AcDbEntity
  8
SLD-0
100
AcDbCircle
 62
7
  6
CONTINUOUS
 10
238.6522710485
 20
67.3430876873
 40
0.8339361813
100
AcDbArc
 50
298.3405303194
 51
19.2177256421
  0
ARC
  5
70C
100
AcDbEntity
  8
SLD-0
100
AcDbCircle
 62
7
  6
CONTINUOUS
 10
231.92293139
 20
82.2809075245
 40
0.5449960808
100
AcDbArc
 50
57.5315201651
 51
105.3264150144
  0
ELLIPSE
  5
70D
100
AcDbEntity
  8
SLD-0
100
AcDbEllipse
 62
7
  6
CONTINUOUS
 10
231.8068076215
 20
79.2331404323
 30
0.0
 11
1.0139166259
 21
1.2007954212
 31
0.0
 40
0.5101765508
 41
6.2614344279
 42
7.2448621822
  0
ELLIPSE
  5
70E
100
AcDbEntity
  8
SLD-0
100
AcDbEllipse
 62
7
  6
CONTINUOUS
 10
231.8046171251
 20
79.1598802882
 30
0.0
 11
-1.0885434469
 21
1.4415677175
 31
0.0
 40
0.1878725365
 41
5.439352292
 42
6.4244448858
  0
ELLIPSE
  5
70F
100
AcDbEntity
  8
SLD-0
100
AcDbEllipse
 62
7
  6
CONTINUOUS
 10
236.642881326
 20
70.6452709304
 30
0.0
 11
1.105524333
 21
0.9697993869
 31
0.0
 40
0.6383147056
 41
3.0806936662
 42
3.4626969011
  0
ELLIPSE
  5
710
100
AcDbEntity
  8
SLD-0
100
AcDbEllipse
 62
7
  6
CONTINUOUS
 10
204.1296116232
 20
81.4278351927
 30
0.0
 11
-0.0
 21
1.5618401741
 31
0.0
 40
0.7438393246
 41
5.8468675648
 42
6.8319601586
  0
ELLIPSE
  5
711
100
AcDbEntity
  8
SLD-0
100
AcDbEllipse
 62
7
  6
CONTINUOUS
 10
184.1675324172
 20
80.3554783945
 30
0.0
 11
0.0
 21
1.5618401741
 31
0.0
 40
0.7438393246
 41
5.7965195257
 42
6.7799796321
  0
ENDSEC
  0
SECTION
  2
OBJECTS
  0
DICTIONARY
  5
C
100
AcDbDictionary
280
0
281
1
  3
ACAD_GROUP
350
D
  3
ACAD_MLINESTYLE
350
17
  3
ACAD_LAYOUT
350
1A
  3
ACAD_PLOTSETTINGS
350
19
  3
ACAD_PLOTSTYLENAME
350
E
  0
DICTIONARY
  5
D
102
{ACAD_REACTORS
330
C
102
}
100
AcDbDictionary
280
0
281
1
  0
ACDBDICTIONARYWDFLT
  5
E
102
{ACAD_REACTORS
330
C
102
}
100
AcDbDictionary
281
1
  3
Normal
350
F
100
AcDbDictionaryWithDefault
340
F
  0
DICTIONARY
  5
17
102
{ACAD_REACTORS
330
C
102
}
100
AcDbDictionary
280
0
281
1
  3
Standard
350
18
  0
DICTIONARY
  5
19
102
{ACAD_REACTORS
330
C
102
}
100
AcDbDictionary
281
1
  0
DICTIONARY
  5
1A
102
{ACAD_REACTORS
330
C
102
}
100
AcDbDictionary
281
1
  3
Model
350
712
  3
Layout1
350
713
  0
ACDBPLACEHOLDER
  5
F
102
{ACAD_REACTORS
330
E
102
}
  0
MLINESTYLE
  5
18
102
{ACAD_REACTORS
330
17
102
}
100
AcDbMlineStyle
  2
STANDARD
 70
0
  3

 62
256
 51
90.0
 52
90.0
 71
2
 49
0.5
 62
256
  6
BYLAYER
 49
-0.5
 62
256
  6
BYLAYER
  0
LAYOUT
  5
712
102
{ACAD_REACTORS
330
1A
102
}
100
AcDbPlotSettings
  1

  2
none_device
  4

  6

 40
0.0
 41
0.0
 42
0.0
 43
0.0
 44
261.62
 45
198.12
 46
0.0
 47
0.0
 48
0.0
 49
0.0
140
0.0
141
0.0
142
1.0
143
1.0
 70
1024
 72
1
 73
0
 74
0
  7

 75
0
147
1.0
148
0.0
149
0.0
100
AcDbLayout
  1
Model
 70
0
 71
0
 10
0.0
 20
0.0
 11
261.62
 21
198.12
 12
0.0
 22
0.0
 32
0.0
 14
0.0
 24
0.0
 34
0.0
 15
0.0
 25
0.0
 35
0.0
146
0.0
 13
0.0
 23
0.0
 33
0.0
 16
1.0
 26
0.0
 36
0.0
 17
0.0
 27
1.0
 37
0.0
 76
0
330
203
345
0
346
0
  0
LAYOUT
  5
713
102
{ACAD_REACTORS
330
1A
102
}
100
AcDbPlotSettings
  1

  2
none_device
  4

  6

 40
0.0
 41
0.0
 42
0.0
 43
0.0
 44
261.62
 45
198.12
 46
0.0
 47
0.0
 48
0.0
 49
0.0
140
0.0
141
0.0
142
1.0
143
1.0
 70
0
 72
1
 73
0
 74
0
  7

 75
0
147
1.0
148
0.0
149
0.0
100
AcDbLayout
  1
Layout1
 70
0
 71
1
 10
0.0
 20
0.0
 11
261.62
 21
198.12
 12
0.0
 22
0.0
 32
0.0
 14
0.0
 24
0.0
 34
0.0
 15
0.0
 25
0.0
 35
0.0
146
0.0
 13
0.0
 23
0.0
 33
0.0
 16
1.0
 26
0.0
 36
0.0
 17
0.0
 27
1.0
 37
0.0
 76
0
330
204
345
0
346
0
  0
ENDSEC
  0
EOF
